ISO-10303-21;
HEADER;
FILE_DESCRIPTION (( 'STEP AP214' ),
    '1' );
FILE_NAME ('56998.step',
    '2024-04-04T09:56:04',
    ( '' ),
    ( '' ),
    'SwSTEP 2.0',
    'SolidWorks 2022',
    '' );
FILE_SCHEMA (( 'AUTOMOTIVE_DESIGN' ));
ENDSEC;

DATA;
#1 = DIRECTION ( 'NONE',  ( 4.275831445896958607E-31, 1.000000000000000000, 1.224646799147353454E-16 ) ) ;
#2 = FACE_OUTER_BOUND ( 'NONE', #66, .T. ) ;
#3 = AXIS2_PLACEMENT_3D ( 'NONE', #93, #7, #323 ) ;
#4 = DIRECTION ( 'NONE',  ( -3.491481338843133355E-15, 1.224646799147353207E-16, -1.000000000000000000 ) ) ;
#5 = SURFACE_SIDE_STYLE ('',( #11 ) ) ;
#6 = AXIS2_PLACEMENT_3D ( 'NONE', #337, #248, #221 ) ;
#7 = DIRECTION ( 'NONE',  ( -3.491481338843133355E-15, 1.224646799147359124E-16, -1.000000000000000000 ) ) ;
#8 = CARTESIAN_POINT ( 'NONE',  ( 2.313914291827672015E-14, 1.299999999999998934, 6.299999999999999822 ) ) ;
#9 = ORIENTED_EDGE ( 'NONE', *, *, #125, .F. ) ;
#10 = CARTESIAN_POINT ( 'NONE',  ( 5.344789307371193879E-32, 1.300000000000000044, 1.530808498934190585E-17 ) ) ;
#11 = SURFACE_STYLE_FILL_AREA ( #162 ) ;
#12 = ORIENTED_EDGE ( 'NONE', *, *, #85, .F. ) ;
#13 = APPLICATION_CONTEXT ( 'automotive_design' ) ;
#14 = AXIS2_PLACEMENT_3D ( 'NONE', #108, #270, #233 ) ;
#15 = APPLICATION_CONTEXT ( 'automotive_design' ) ;
#16 = AXIS2_PLACEMENT_3D ( 'NONE', #296, #243, #290 ) ;
#17 = CONICAL_SURFACE ( 'NONE', #282, 1.299999999999999822, 0.3450620389298189039 ) ;
#18 = DIRECTION ( 'NONE',  ( 1.000000000000000000, 0.000000000000000000, -3.491481338843133355E-15 ) ) ;
#19 = CIRCLE ( 'NONE', #198, 1.299999999999999822 ) ;
#20 = EDGE_CURVE ( 'NONE', #60, #127, #137, .T. ) ;
#21 = CARTESIAN_POINT ( 'NONE',  ( 2.393905229808044300E-14, 1.499999999999995337, 6.856417083418352654 ) ) ;
#22 = CARTESIAN_POINT ( 'NONE',  ( 1.836970198721019827E-16, -1.499999999999996891, -1.836970198721032399E-16 ) ) ;
#23 = AXIS2_PLACEMENT_3D ( 'NONE', #289, #62, #1 ) ;
#24 = ADVANCED_FACE ( 'NONE', ( #97 ), #189, .F. ) ;
#25 = CARTESIAN_POINT ( 'NONE',  ( 1.326762908760390423E-13, -4.653657836759941941E-15, 38.00000000000000000 ) ) ;
#26 = CIRCLE ( 'NONE', #240, 1.499999999999996225 ) ;
#27 = SURFACE_STYLE_FILL_AREA ( #52 ) ;
#28 = DIRECTION ( 'NONE',  ( -2.468850131082267710E-15, 0.7071067811865469066, -0.7071067811865482389 ) ) ;
#29 = EDGE_LOOP ( 'NONE', ( #225, #329 ) ) ;
#30 = ORIENTED_EDGE ( 'NONE', *, *, #310, .F. ) ;
#31 = DIRECTION ( 'NONE',  ( 3.491481338843133355E-15, -0.000000000000000000, 1.000000000000000000 ) ) ;
#32 = FILL_AREA_STYLE_COLOUR ( '', #118 ) ;
#33 = CIRCLE ( 'NONE', #68, 1.299999999999998934 ) ;
#34 = EDGE_CURVE ( 'NONE', #177, #313, #148, .T. ) ;
#35 = DIRECTION ( 'NONE',  ( 0.000000000000000000, -1.000000000000000000, 0.000000000000000000 ) ) ;
#36 = CARTESIAN_POINT ( 'NONE',  ( 7.796764640610535642E-14, -1.499999999999996891, 6.856417083418352654 ) ) ;
#37 = LINE ( 'NONE', #110, #129 ) ;
#38 = DIRECTION ( 'NONE',  ( -3.491481338843133355E-15, 1.224646799147359124E-16, -1.000000000000000000 ) ) ;
#39 = ORIENTED_EDGE ( 'NONE', *, *, #317, .F. ) ;
#40 = LINE ( 'NONE', #112, #278 ) ;
#41 = CIRCLE ( 'NONE', #16, 1.299999999999999822 ) ;
#42 = EDGE_CURVE ( 'NONE', #84, #303, #65, .T. ) ;
#43 = COLOUR_RGB ( '',1.000000000000000000, 1.000000000000000000, 1.000000000000000000 ) ;
#44 = AXIS2_PLACEMENT_3D ( 'NONE', #200, #293, #267 ) ;
#45 = EDGE_CURVE ( 'NONE', #303, #84, #185, .T. ) ;
#46 = CIRCLE ( 'NONE', #295, 1.199999999999995959 ) ;
#47 = DIRECTION ( 'NONE',  ( 3.491481338843133355E-15, -0.000000000000000000, 1.000000000000000000 ) ) ;
#48 = AXIS2_PLACEMENT_3D ( 'NONE', #220, #222, #96 ) ;
#49 = AXIS2_PLACEMENT_3D ( 'NONE', #139, #161, #35 ) ;
#50 = UNCERTAINTY_MEASURE_WITH_UNIT (LENGTH_MEASURE( 1.000000000000000082E-05 ), #311, 'distance_accuracy_value', 'NONE');
#51 = EDGE_CURVE ( 'NONE', #77, #191, #333, .T. ) ;
#52 = FILL_AREA_STYLE ('',( #287 ) ) ;
#53 = ORIENTED_EDGE ( 'NONE', *, *, #111, .T. ) ;
#54 = FACE_OUTER_BOUND ( 'NONE', #271, .T. ) ;
#55 = DIRECTION ( 'NONE',  ( -3.491481338843133355E-15, 1.224646799147353207E-16, -1.000000000000000000 ) ) ;
#56 = ORIENTED_EDGE ( 'NONE', *, *, #339, .F. ) ;
#57 = FACE_OUTER_BOUND ( 'NONE', #195, .T. ) ;
#58 =( NAMED_UNIT ( * ) SI_UNIT ( $, .STERADIAN. ) SOLID_ANGLE_UNIT ( ) );
#59 = AXIS2_PLACEMENT_3D ( 'NONE', #69, #188, #101 ) ;
#60 = VERTEX_POINT ( 'NONE', #307 ) ;
#61 = CARTESIAN_POINT ( 'NONE',  ( 1.316288464743861212E-13, -4.616918432785521081E-15, 37.69999999999999574 ) ) ;
#62 = DIRECTION ( 'NONE',  ( -3.491481338843133355E-15, 1.224646799147353207E-16, -1.000000000000000000 ) ) ;
#63 = SURFACE_STYLE_USAGE ( .BOTH. , #241 ) ;
#64 = PRESENTATION_LAYER_ASSIGNMENT (  '', '', ( #259 ) ) ;
#65 = CIRCLE ( 'NONE', #6, 1.300000000000000044 ) ;
#66 = EDGE_LOOP ( 'NONE', ( #98, #208, #130, #56 ) ) ;
#67 = AXIS2_PLACEMENT_3D ( 'NONE', #133, #322, #90 ) ;
#68 = AXIS2_PLACEMENT_3D ( 'NONE', #263, #47, #128 ) ;
#69 = CARTESIAN_POINT ( 'NONE',  ( 2.393905229808044300E-14, -8.396689234827516661E-16, 6.856417083418352654 ) ) ;
#70 = CARTESIAN_POINT ( 'NONE',  ( 2.199633243471174014E-14, 0.000000000000000000, 6.299999999999999822 ) ) ;
#71 = VERTEX_POINT ( 'NONE', #21 ) ;
#72 =( NAMED_UNIT ( * ) PLANE_ANGLE_UNIT ( ) SI_UNIT ( $, .RADIAN. ) );
#73 =( LENGTH_UNIT ( ) NAMED_UNIT ( * ) SI_UNIT ( .MILLI., .METRE. ) );
#74 = ORIENTED_EDGE ( 'NONE', *, *, #51, .T. ) ;
#75 = ORIENTED_EDGE ( 'NONE', *, *, #339, .T. ) ;
#76 = FACE_OUTER_BOUND ( 'NONE', #211, .T. ) ;
#77 = VERTEX_POINT ( 'NONE', #146 ) ;
#78 = CIRCLE ( 'NONE', #14, 1.499999999999996891 ) ;
#79 = DIRECTION ( 'NONE',  ( 3.327098416510788398E-15, 0.3382550599108817835, 0.9410544694355825746 ) ) ;
#80 = ORIENTED_EDGE ( 'NONE', *, *, #276, .F. ) ;
#81 = CONICAL_SURFACE ( 'NONE', #275, 1.499999999999996891, 0.7853981633974472798 ) ;
#82 = FILL_AREA_STYLE_COLOUR ( '', #126 ) ;
#83 =( NAMED_UNIT ( * ) PLANE_ANGLE_UNIT ( ) SI_UNIT ( $, .RADIAN. ) );
#84 = VERTEX_POINT ( 'NONE', #255 ) ;
#85 = EDGE_CURVE ( 'NONE', #71, #313, #26, .T. ) ;
#86 = LINE ( 'NONE', #327, #113 ) ;
#87 = DIRECTION ( 'NONE',  ( 0.000000000000000000, -1.000000000000000000, 0.000000000000000000 ) ) ;
#88 = EDGE_LOOP ( 'NONE', ( #193, #138, #239, #9 ) ) ;
#89 = CARTESIAN_POINT ( 'NONE',  ( 2.296769236639609157E-14, -1.300000000000000488, 6.299999999999999822 ) ) ;
#90 = DIRECTION ( 'NONE',  ( 1.000000000000000000, 0.000000000000000000, -3.336006684570784088E-15 ) ) ;
#91 = ORIENTED_EDGE ( 'NONE', *, *, #250, .T. ) ;
#92 = LINE ( 'NONE', #326, #249 ) ;
#93 = CARTESIAN_POINT ( 'NONE',  ( 1.316288464743861212E-13, -4.616918432785521081E-15, 37.69999999999999574 ) ) ;
#94 = SURFACE_STYLE_FILL_AREA ( #142 ) ;
#95 = ADVANCED_FACE ( 'NONE', ( #166 ), #121, .T. ) ;
#96 = DIRECTION ( 'NONE',  ( 0.000000000000000000, -1.000000000000000000, 0.000000000000000000 ) ) ;
#97 = FACE_OUTER_BOUND ( 'NONE', #298, .T. ) ;
#98 = ORIENTED_EDGE ( 'NONE', *, *, #34, .F. ) ;
#99 = DIRECTION ( 'NONE',  ( 0.000000000000000000, 0.000000000000000000, 1.000000000000000000 ) ) ;
#100 = ORIENTED_EDGE ( 'NONE', *, *, #45, .T. ) ;
#101 = DIRECTION ( 'NONE',  ( 0.000000000000000000, 1.000000000000000000, 0.000000000000000000 ) ) ;
#102 = DIRECTION ( 'NONE',  ( 0.000000000000000000, 1.000000000000000000, 0.000000000000000000 ) ) ;
#103 = DIRECTION ( 'NONE',  ( 3.491481338843133355E-15, -0.000000000000000000, 1.000000000000000000 ) ) ;
#104 = MECHANICAL_DESIGN_GEOMETRIC_PRESENTATION_REPRESENTATION (  '', ( #180 ), #332 ) ;
#105 = CARTESIAN_POINT ( 'NONE',  ( -1.300000000000000044, 1.592040838891572407E-16, 4.538925740496073362E-15 ) ) ;
#106 =( LENGTH_UNIT ( ) NAMED_UNIT ( * ) SI_UNIT ( .MILLI., .METRE. ) );
#107 = DIRECTION ( 'NONE',  ( 3.285674118869262210E-15, -0.3382550599108819500, 0.9410544694355824635 ) ) ;
#108 = CARTESIAN_POINT ( 'NONE',  ( 1.316288464743861212E-13, -4.616918432785521081E-15, 37.69999999999999574 ) ) ;
#109 = ORIENTED_EDGE ( 'NONE', *, *, #172, .F. ) ;
#110 = CARTESIAN_POINT ( 'NONE',  ( 1.318125434942582113E-13, -1.500000000000001554, 37.69999999999999574 ) ) ;
#111 = EDGE_CURVE ( 'NONE', #191, #177, #37, .T. ) ;
#112 = CARTESIAN_POINT ( 'NONE',  ( -1.299999999999977618, 1.592040838891558602E-16, 6.300000000000004263 ) ) ;
#113 = VECTOR ( 'NONE', #107, 1000.000000000000000 ) ;
#114 = ORIENTED_EDGE ( 'NONE', *, *, #42, .F. ) ;
#115 =( NAMED_UNIT ( * ) PLANE_ANGLE_UNIT ( ) SI_UNIT ( $, .RADIAN. ) );
#116 = AXIS2_PLACEMENT_3D ( 'NONE', #70, #294, #160 ) ;
#117 = PRODUCT_DEFINITION ( 'UNKNOWN', '', #300, #305 ) ;
#118 = COLOUR_RGB ( '',1.000000000000000000, 1.000000000000000000, 1.000000000000000000 ) ;
#119 = UNCERTAINTY_MEASURE_WITH_UNIT (LENGTH_MEASURE( 1.000000000000000082E-05 ), #106, 'distance_accuracy_value', 'NONE');
#120 = VECTOR ( 'NONE', #79, 999.9999999999998863 ) ;
#121 = CYLINDRICAL_SURFACE ( 'NONE', #116, 1.299999999999999600 ) ;
#122 = ORIENTED_EDGE ( 'NONE', *, *, #151, .F. ) ;
#123 = DIRECTION ( 'NONE',  ( -3.491481338843133355E-15, 1.224646799147353207E-16, -1.000000000000000000 ) ) ;
#124 = ORIENTED_EDGE ( 'NONE', *, *, #45, .F. ) ;
#125 = EDGE_CURVE ( 'NONE', #84, #60, #92, .T. ) ;
#126 = COLOUR_RGB ( '',1.000000000000000000, 1.000000000000000000, 1.000000000000000000 ) ;
#127 = VERTEX_POINT ( 'NONE', #167 ) ;
#128 = DIRECTION ( 'NONE',  ( 1.000000000000000000, 0.000000000000000000, -3.336006684570785665E-15 ) ) ;
#129 = VECTOR ( 'NONE', #212, 1000.000000000000000 ) ;
#130 = ORIENTED_EDGE ( 'NONE', *, *, #187, .T. ) ;
#131 = FACE_OUTER_BOUND ( 'NONE', #288, .T. ) ;
#132 = CARTESIAN_POINT ( 'NONE',  ( 1.323178959930974906E-13, -1.200000000000000622, 38.00000000000000000 ) ) ;
#133 = CARTESIAN_POINT ( 'NONE',  ( 2.199633243471174014E-14, 0.000000000000000000, 6.299999999999999822 ) ) ;
#134 = ORIENTED_EDGE ( 'NONE', *, *, #279, .F. ) ;
#135 = CARTESIAN_POINT ( 'NONE',  ( 7.796764640610530593E-14, -1.500000000000001554, 37.69999999999999574 ) ) ;
#136 = LINE ( 'NONE', #320, #120 ) ;
#137 = CIRCLE ( 'NONE', #204, 1.299999999999998934 ) ;
#138 = ORIENTED_EDGE ( 'NONE', *, *, #183, .T. ) ;
#139 = CARTESIAN_POINT ( 'NONE',  ( 2.199633243471174014E-14, -7.715274834628325378E-16, 6.299999999999999822 ) ) ;
#140 = CYLINDRICAL_SURFACE ( 'NONE', #67, 1.299999999999999600 ) ;
#141 = ORIENTED_EDGE ( 'NONE', *, *, #317, .T. ) ;
#142 = FILL_AREA_STYLE ('',( #82 ) ) ;
#143 = ADVANCED_FACE ( 'NONE', ( #283 ), #229, .F. ) ;
#144 = DIRECTION ( 'NONE',  ( -3.491481338843133355E-15, 0.000000000000000000, -1.000000000000000000 ) ) ;
#145 = EDGE_LOOP ( 'NONE', ( #174, #292, #12, #258 ) ) ;
#146 = CARTESIAN_POINT ( 'NONE',  ( 1.321525686752125943E-13, 1.199999999999991518, 38.00000000000000000 ) ) ;
#147 = ADVANCED_FACE ( 'NONE', ( #182 ), #237, .T. ) ;
#148 = LINE ( 'NONE', #22, #219 ) ;
#149 = DIRECTION ( 'NONE',  ( 3.491481338843133355E-15, -0.000000000000000000, 1.000000000000000000 ) ) ;
#150 = AXIS2_PLACEMENT_3D ( 'NONE', #308, #144, #218 ) ;
#151 = EDGE_CURVE ( 'NONE', #197, #314, #41, .T. ) ;
#152 = CARTESIAN_POINT ( 'NONE',  ( 0.000000000000000000, 0.000000000000000000, 0.000000000000000000 ) ) ;
#153 = ORIENTED_EDGE ( 'NONE', *, *, #111, .F. ) ;
#154 = ADVANCED_FACE ( 'NONE', ( #273 ), #81, .T. ) ;
#155 = CARTESIAN_POINT ( 'NONE',  ( 1.316288464743861212E-13, 1.499999999999992450, 37.69999999999999574 ) ) ;
#156 = CYLINDRICAL_SURFACE ( 'NONE', #23, 1.499999999999996891 ) ;
#157 = AXIS2_PLACEMENT_3D ( 'NONE', #152, #99, #199 ) ;
#158 = LINE ( 'NONE', #319, #309 ) ;
#159 =( GEOMETRIC_REPRESENTATION_CONTEXT ( 3 ) GLOBAL_UNCERTAINTY_ASSIGNED_CONTEXT ( ( #119 ) ) GLOBAL_UNIT_ASSIGNED_CONTEXT ( ( #106, #115, #205 ) ) REPRESENTATION_CONTEXT ( 'NONE', 'WORKASPACE' ) );
#160 = DIRECTION ( 'NONE',  ( 1.000000000000000000, 0.000000000000000000, -3.336006684570784088E-15 ) ) ;
#161 = DIRECTION ( 'NONE',  ( 3.491481338843133355E-15, -1.224646799147353207E-16, 1.000000000000000000 ) ) ;
#162 = FILL_AREA_STYLE ('',( #32 ) ) ;
#163 = EDGE_LOOP ( 'NONE', ( #153, #268, #342, #232 ) ) ;
#164 = PRESENTATION_STYLE_ASSIGNMENT (( #63 ) ) ;
#165 = DIRECTION ( 'NONE',  ( 3.491481338843133355E-15, -0.000000000000000000, 1.000000000000000000 ) ) ;
#166 = FACE_OUTER_BOUND ( 'NONE', #88, .T. ) ;
#167 = CARTESIAN_POINT ( 'NONE',  ( -1.299999999999976952, 1.592040838891558109E-16, 6.300000000000004263 ) ) ;
#168 = ADVANCED_FACE ( 'NONE', ( #57 ), #202, .T. ) ;
#169 = VECTOR ( 'NONE', #28, 999.9999999999998863 ) ;
#170 = PRESENTATION_STYLE_ASSIGNMENT (( #341 ) ) ;
#171 = DIRECTION ( 'NONE',  ( 3.491481338843133355E-15, -0.000000000000000000, 1.000000000000000000 ) ) ;
#172 = EDGE_CURVE ( 'NONE', #314, #197, #19, .T. ) ;
#173 = APPLICATION_PROTOCOL_DEFINITION ( 'draft international standard', 'automotive_design', 1998, #15 ) ;
#174 = ORIENTED_EDGE ( 'NONE', *, *, #276, .T. ) ;
#175 = PRODUCT_DEFINITION_SHAPE ( 'NONE', 'NONE',  #117 ) ;
#176 = CARTESIAN_POINT ( 'NONE',  ( 1.316288464743861212E-13, -4.616918432785521081E-15, 37.69999999999999574 ) ) ;
#177 = VERTEX_POINT ( 'NONE', #135 ) ;
#178 = EDGE_CURVE ( 'NONE', #197, #313, #86, .T. ) ;
#179 = CARTESIAN_POINT ( 'NONE',  ( 7.778394938623329156E-14, 1.499999999999992450, 37.69999999999999574 ) ) ;
#180 = STYLED_ITEM ( 'NONE', ( #201 ), #304 ) ;
#181 = CARTESIAN_POINT ( 'NONE',  ( 2.199633243471174014E-14, -7.715274834628325378E-16, 6.299999999999999822 ) ) ;
#182 = FACE_OUTER_BOUND ( 'NONE', #29, .T. ) ;
#183 = EDGE_CURVE ( 'NONE', #303, #127, #40, .T. ) ;
#184 = AXIS2_PLACEMENT_3D ( 'NONE', #10, #103, #330 ) ;
#185 = CIRCLE ( 'NONE', #262, 1.300000000000000044 ) ;
#186 = CARTESIAN_POINT ( 'NONE',  ( 2.393905229808044300E-14, -8.396689234827516661E-16, 6.856417083418352654 ) ) ;
#187 = EDGE_CURVE ( 'NONE', #203, #71, #158, .T. ) ;
#188 = DIRECTION ( 'NONE',  ( -3.491481338843133355E-15, 1.224646799147353207E-16, -1.000000000000000000 ) ) ;
#189 = PLANE ( 'NONE',  #150 ) ;
#190 = CIRCLE ( 'NONE', #59, 1.499999999999996225 ) ;
#191 = VERTEX_POINT ( 'NONE', #132 ) ;
#192 = MANIFOLD_SOLID_BREP ( 'Corps-Déplacer/Copier1[1]', #253 ) ;
#193 = ORIENTED_EDGE ( 'NONE', *, *, #42, .T. ) ;
#194 = EDGE_CURVE ( 'NONE', #177, #203, #251, .T. ) ;
#195 = EDGE_LOOP ( 'NONE', ( #134, #122, #234, #75 ) ) ;
#196 = PLANE ( 'NONE',  #266 ) ;
#197 = VERTEX_POINT ( 'NONE', #89 ) ;
#198 = AXIS2_PLACEMENT_3D ( 'NONE', #321, #4, #213 ) ;
#199 = DIRECTION ( 'NONE',  ( 1.000000000000000000, 0.000000000000000000, 0.000000000000000000 ) ) ;
#200 = CARTESIAN_POINT ( 'NONE',  ( 2.199633243471174014E-14, 1.299999999999998934, 6.299999999999999822 ) ) ;
#201 = PRESENTATION_STYLE_ASSIGNMENT (( #265 ) ) ;
#202 = CONICAL_SURFACE ( 'NONE', #49, 1.299999999999999822, 0.3450620389298189039 ) ;
#203 = VERTEX_POINT ( 'NONE', #179 ) ;
#204 = AXIS2_PLACEMENT_3D ( 'NONE', #338, #171, #261 ) ;
#205 =( NAMED_UNIT ( * ) SI_UNIT ( $, .STERADIAN. ) SOLID_ANGLE_UNIT ( ) );
#206 =( LENGTH_UNIT ( ) NAMED_UNIT ( * ) SI_UNIT ( .MILLI., .METRE. ) );
#207 = ADVANCED_FACE ( 'NONE', ( #131 ), #301, .T. ) ;
#208 = ORIENTED_EDGE ( 'NONE', *, *, #194, .T. ) ;
#209 = DIRECTION ( 'NONE',  ( 0.000000000000000000, 1.000000000000000000, 0.000000000000000000 ) ) ;
#210 = FACE_OUTER_BOUND ( 'NONE', #145, .T. ) ;
#211 = EDGE_LOOP ( 'NONE', ( #74, #91 ) ) ;
#212 = DIRECTION ( 'NONE',  ( -2.382254525458719047E-15, -0.7071067811865466846, -0.7071067811865483499 ) ) ;
#213 = DIRECTION ( 'NONE',  ( 0.000000000000000000, 1.000000000000000000, 0.000000000000000000 ) ) ;
#214 = AXIS2_PLACEMENT_3D ( 'NONE', #176, #38, #102 ) ;
#215 = DIRECTION ( 'NONE',  ( 4.275831445896958607E-31, 1.000000000000000000, 1.224646799147353454E-16 ) ) ;
#216 = ORIENTED_EDGE ( 'NONE', *, *, #20, .T. ) ;
#217 = AXIS2_PLACEMENT_3D ( 'NONE', #264, #55, #215 ) ;
#218 = DIRECTION ( 'NONE',  ( -1.000000000000000000, 0.000000000000000000, 3.491481338843133355E-15 ) ) ;
#219 = VECTOR ( 'NONE', #280, 1000.000000000000000 ) ;
#220 = CARTESIAN_POINT ( 'NONE',  ( 1.326762908760390423E-13, -4.653657836759941941E-15, 38.00000000000000000 ) ) ;
#221 = DIRECTION ( 'NONE',  ( 1.000000000000000000, 0.000000000000000000, -3.491481338843133355E-15 ) ) ;
#222 = DIRECTION ( 'NONE',  ( 3.491481338843133355E-15, -1.224646799147353207E-16, 1.000000000000000000 ) ) ;
#223 = PRODUCT ( '56998', '56998', '', ( #315 ) ) ;
#224 = DIRECTION ( 'NONE',  ( 0.000000000000000000, 1.000000000000000000, 0.000000000000000000 ) ) ;
#225 = ORIENTED_EDGE ( 'NONE', *, *, #151, .T. ) ;
#226 = PRESENTATION_LAYER_ASSIGNMENT (  '', '', ( #274 ) ) ;
#227 = MECHANICAL_DESIGN_GEOMETRIC_PRESENTATION_REPRESENTATION (  '', ( #259 ), #159 ) ;
#228 = DIRECTION ( 'NONE',  ( 3.491481338843133355E-15, -1.224646799147353207E-16, 1.000000000000000000 ) ) ;
#229 = PLANE ( 'NONE',  #184 ) ;
#230 = CLOSED_SHELL ( 'NONE', ( #95, #236, #24, #143 ) ) ;
#231 =( NAMED_UNIT ( * ) PLANE_ANGLE_UNIT ( ) SI_UNIT ( $, .RADIAN. ) );
#232 = ORIENTED_EDGE ( 'NONE', *, *, #194, .F. ) ;
#233 = DIRECTION ( 'NONE',  ( 3.641531520770512822E-14, -1.000000000000000000, 0.000000000000000000 ) ) ;
#234 = ORIENTED_EDGE ( 'NONE', *, *, #178, .T. ) ;
#235 = ORIENTED_EDGE ( 'NONE', *, *, #250, .F. ) ;
#236 = ADVANCED_FACE ( 'NONE', ( #54 ), #140, .T. ) ;
#237 = PLANE ( 'NONE',  #44 ) ;
#238 = FACE_OUTER_BOUND ( 'NONE', #284, .T. ) ;
#239 = ORIENTED_EDGE ( 'NONE', *, *, #20, .F. ) ;
#240 = AXIS2_PLACEMENT_3D ( 'NONE', #186, #123, #224 ) ;
#241 = SURFACE_SIDE_STYLE ('',( #94 ) ) ;
#242 = LINE ( 'NONE', #155, #169 ) ;
#243 = DIRECTION ( 'NONE',  ( -3.491481338843133355E-15, 1.224646799147353207E-16, -1.000000000000000000 ) ) ;
#244 = DIRECTION ( 'NONE',  ( 0.000000000000000000, -1.000000000000000000, 0.000000000000000000 ) ) ;
#245 = ORIENTED_EDGE ( 'NONE', *, *, #279, .T. ) ;
#246 = ADVANCED_FACE ( 'NONE', ( #238 ), #17, .T. ) ;
#247 = EDGE_LOOP ( 'NONE', ( #114, #124 ) ) ;
#248 = DIRECTION ( 'NONE',  ( 3.491481338843133355E-15, -0.000000000000000000, 1.000000000000000000 ) ) ;
#249 = VECTOR ( 'NONE', #149, 1000.000000000000000 ) ;
#250 = EDGE_CURVE ( 'NONE', #191, #77, #46, .T. ) ;
#251 = CIRCLE ( 'NONE', #3, 1.499999999999996891 ) ;
#252 = UNCERTAINTY_MEASURE_WITH_UNIT (LENGTH_MEASURE( 1.000000000000000082E-05 ), #206, 'distance_accuracy_value', 'NONE');
#253 = CLOSED_SHELL ( 'NONE', ( #207, #246, #272, #147, #334, #302, #168, #154 ) ) ;
#254 =( NAMED_UNIT ( * ) SI_UNIT ( $, .STERADIAN. ) SOLID_ANGLE_UNIT ( ) );
#255 = CARTESIAN_POINT ( 'NONE',  ( 1.300000000000000044, 0.000000000000000000, -4.538925740496073362E-15 ) ) ;
#256 = ORIENTED_EDGE ( 'NONE', *, *, #183, .F. ) ;
#257 = SURFACE_SIDE_STYLE ('',( #27 ) ) ;
#258 = ORIENTED_EDGE ( 'NONE', *, *, #187, .F. ) ;
#259 = STYLED_ITEM ( 'NONE', ( #164 ), #192 ) ;
#260 = DIRECTION ( 'NONE',  ( -4.275831445896958607E-31, -1.000000000000000000, -1.224646799147353207E-16 ) ) ;
#261 = DIRECTION ( 'NONE',  ( 1.000000000000000000, 0.000000000000000000, -3.336006684570785665E-15 ) ) ;
#262 = AXIS2_PLACEMENT_3D ( 'NONE', #336, #165, #18 ) ;
#263 = CARTESIAN_POINT ( 'NONE',  ( 2.199633243471174014E-14, 0.000000000000000000, 6.299999999999999822 ) ) ;
#264 = CARTESIAN_POINT ( 'NONE',  ( 0.000000000000000000, 0.000000000000000000, 0.000000000000000000 ) ) ;
#265 = SURFACE_STYLE_USAGE ( .BOTH. , #5 ) ;
#266 = AXIS2_PLACEMENT_3D ( 'NONE', #25, #228, #260 ) ;
#267 = DIRECTION ( 'NONE',  ( 4.275831445896958607E-31, 1.000000000000000000, 1.224646799147353207E-16 ) ) ;
#268 = ORIENTED_EDGE ( 'NONE', *, *, #51, .F. ) ;
#269 = DIRECTION ( 'NONE',  ( -3.491481338843133355E-15, 1.224646799147353207E-16, -1.000000000000000000 ) ) ;
#270 = DIRECTION ( 'NONE',  ( -3.491481338843133355E-15, 1.224646799147359124E-16, -1.000000000000000000 ) ) ;
#271 = EDGE_LOOP ( 'NONE', ( #256, #100, #325, #39 ) ) ;
#272 = ADVANCED_FACE ( 'NONE', ( #210 ), #156, .T. ) ;
#273 = FACE_OUTER_BOUND ( 'NONE', #163, .T. ) ;
#274 = STYLED_ITEM ( 'NONE', ( #170 ), #340 ) ;
#275 = AXIS2_PLACEMENT_3D ( 'NONE', #61, #299, #209 ) ;
#276 = EDGE_CURVE ( 'NONE', #203, #177, #78, .T. ) ;
#277 = MECHANICAL_DESIGN_GEOMETRIC_PRESENTATION_REPRESENTATION (  '', ( #274 ), #281 ) ;
#278 = VECTOR ( 'NONE', #31, 1000.000000000000000 ) ;
#279 = EDGE_CURVE ( 'NONE', #314, #71, #136, .T. ) ;
#280 = DIRECTION ( 'NONE',  ( -3.491481338843133355E-15, 1.224646799147353207E-16, -1.000000000000000000 ) ) ;
#281 =( GEOMETRIC_REPRESENTATION_CONTEXT ( 3 ) GLOBAL_UNCERTAINTY_ASSIGNED_CONTEXT ( ( #50 ) ) GLOBAL_UNIT_ASSIGNED_CONTEXT ( ( #311, #72, #306 ) ) REPRESENTATION_CONTEXT ( 'NONE', 'WORKASPACE' ) );
#282 = AXIS2_PLACEMENT_3D ( 'NONE', #181, #328, #87 ) ;
#283 = FACE_OUTER_BOUND ( 'NONE', #247, .T. ) ;
#284 = EDGE_LOOP ( 'NONE', ( #109, #245, #312, #286 ) ) ;
#285 = APPLICATION_PROTOCOL_DEFINITION ( 'draft international standard', 'automotive_design', 1998, #13 ) ;
#286 = ORIENTED_EDGE ( 'NONE', *, *, #178, .F. ) ;
#287 = FILL_AREA_STYLE_COLOUR ( '', #43 ) ;
#288 = EDGE_LOOP ( 'NONE', ( #235, #53, #80, #30 ) ) ;
#289 = CARTESIAN_POINT ( 'NONE',  ( 0.000000000000000000, 0.000000000000000000, 0.000000000000000000 ) ) ;
#290 = DIRECTION ( 'NONE',  ( 0.000000000000000000, 1.000000000000000000, 0.000000000000000000 ) ) ;
#291 = CYLINDRICAL_SURFACE ( 'NONE', #217, 1.499999999999996891 ) ;
#292 = ORIENTED_EDGE ( 'NONE', *, *, #34, .T. ) ;
#293 = DIRECTION ( 'NONE',  ( -3.491481338843133355E-15, 1.224646799147353207E-16, -1.000000000000000000 ) ) ;
#294 = DIRECTION ( 'NONE',  ( 3.491481338843133355E-15, -0.000000000000000000, 1.000000000000000000 ) ) ;
#295 = AXIS2_PLACEMENT_3D ( 'NONE', #297, #324, #244 ) ;
#296 = CARTESIAN_POINT ( 'NONE',  ( 2.199633243471174014E-14, -7.715274834628325378E-16, 6.299999999999999822 ) ) ;
#297 = CARTESIAN_POINT ( 'NONE',  ( 1.326762908760390423E-13, -4.653657836759941941E-15, 38.00000000000000000 ) ) ;
#298 = EDGE_LOOP ( 'NONE', ( #216, #141 ) ) ;
#299 = DIRECTION ( 'NONE',  ( -3.491481338843133355E-15, 1.224646799147359124E-16, -1.000000000000000000 ) ) ;
#300 = PRODUCT_DEFINITION_FORMATION_WITH_SPECIFIED_SOURCE ( 'ANY', '', #223, .NOT_KNOWN. ) ;
#301 = CONICAL_SURFACE ( 'NONE', #214, 1.499999999999996891, 0.7853981633974472798 ) ;
#302 = ADVANCED_FACE ( 'NONE', ( #2 ), #291, .T. ) ;
#303 = VERTEX_POINT ( 'NONE', #105 ) ;
#304 = MANIFOLD_SOLID_BREP ( 'Corps-Déplacer/Copier1[2]', #230 ) ;
#305 = PRODUCT_DEFINITION_CONTEXT ( 'detailed design', #15, 'design' ) ;
#306 =( NAMED_UNIT ( * ) SI_UNIT ( $, .STERADIAN. ) SOLID_ANGLE_UNIT ( ) );
#307 = CARTESIAN_POINT ( 'NONE',  ( 1.300000000000020695, 0.000000000000000000, 6.299999999999995381 ) ) ;
#308 = CARTESIAN_POINT ( 'NONE',  ( 2.199633243471174014E-14, 1.299999999999998934, 6.299999999999999822 ) ) ;
#309 = VECTOR ( 'NONE', #269, 1000.000000000000000 ) ;
#310 = EDGE_CURVE ( 'NONE', #77, #203, #242, .T. ) ;
#311 =( LENGTH_UNIT ( ) NAMED_UNIT ( * ) SI_UNIT ( .MILLI., .METRE. ) );
#312 = ORIENTED_EDGE ( 'NONE', *, *, #85, .T. ) ;
#313 = VERTEX_POINT ( 'NONE', #36 ) ;
#314 = VERTEX_POINT ( 'NONE', #8 ) ;
#315 = PRODUCT_CONTEXT ( 'NONE', #13, 'mechanical' ) ;
#316 = PRESENTATION_LAYER_ASSIGNMENT (  '', '', ( #180 ) ) ;
#317 = EDGE_CURVE ( 'NONE', #127, #60, #33, .T. ) ;
#318 = SHAPE_DEFINITION_REPRESENTATION ( #175, #340 ) ;
#319 = CARTESIAN_POINT ( 'NONE',  ( 6.413747168845424773E-31, 1.499999999999996891, 1.836970198721026236E-16 ) ) ;
#320 = CARTESIAN_POINT ( 'NONE',  ( 2.215553651860089772E-14, 1.299999999999998934, 6.299999999999999822 ) ) ;
#321 = CARTESIAN_POINT ( 'NONE',  ( 2.199633243471174014E-14, -7.715274834628325378E-16, 6.299999999999999822 ) ) ;
#322 = DIRECTION ( 'NONE',  ( 3.491481338843133355E-15, -0.000000000000000000, 1.000000000000000000 ) ) ;
#323 = DIRECTION ( 'NONE',  ( -3.552713678800501560E-14, -1.000000000000000000, 0.000000000000000000 ) ) ;
#324 = DIRECTION ( 'NONE',  ( 3.491481338843133355E-15, -1.224646799147353207E-16, 1.000000000000000000 ) ) ;
#325 = ORIENTED_EDGE ( 'NONE', *, *, #125, .T. ) ;
#326 = CARTESIAN_POINT ( 'NONE',  ( 1.300000000000021361, 0.000000000000000000, 6.299999999999995381 ) ) ;
#327 = CARTESIAN_POINT ( 'NONE',  ( 2.199633243471174014E-14, -1.300000000000000488, 6.299999999999999822 ) ) ;
#328 = DIRECTION ( 'NONE',  ( 3.491481338843133355E-15, -1.224646799147353207E-16, 1.000000000000000000 ) ) ;
#329 = ORIENTED_EDGE ( 'NONE', *, *, #172, .T. ) ;
#330 = DIRECTION ( 'NONE',  ( 1.000000000000000000, 0.000000000000000000, -3.491481338843133355E-15 ) ) ;
#331 = PRODUCT_RELATED_PRODUCT_CATEGORY ( 'part', '', ( #223 ) ) ;
#332 =( GEOMETRIC_REPRESENTATION_CONTEXT ( 3 ) GLOBAL_UNCERTAINTY_ASSIGNED_CONTEXT ( ( #252 ) ) GLOBAL_UNIT_ASSIGNED_CONTEXT ( ( #206, #83, #58 ) ) REPRESENTATION_CONTEXT ( 'NONE', 'WORKASPACE' ) );
#333 = CIRCLE ( 'NONE', #48, 1.199999999999995959 ) ;
#334 = ADVANCED_FACE ( 'NONE', ( #76 ), #196, .T. ) ;
#335 = UNCERTAINTY_MEASURE_WITH_UNIT (LENGTH_MEASURE( 1.000000000000000082E-05 ), #73, 'distance_accuracy_value', 'NONE');
#336 = CARTESIAN_POINT ( 'NONE',  ( 0.000000000000000000, 0.000000000000000000, 0.000000000000000000 ) ) ;
#337 = CARTESIAN_POINT ( 'NONE',  ( 0.000000000000000000, 0.000000000000000000, 0.000000000000000000 ) ) ;
#338 = CARTESIAN_POINT ( 'NONE',  ( 2.199633243471174014E-14, 0.000000000000000000, 6.299999999999999822 ) ) ;
#339 = EDGE_CURVE ( 'NONE', #313, #71, #190, .T. ) ;
#340 = ADVANCED_BREP_SHAPE_REPRESENTATION ( '56998', ( #192, #304, #157 ), #343 ) ;
#341 = SURFACE_STYLE_USAGE ( .BOTH. , #257 ) ;
#342 = ORIENTED_EDGE ( 'NONE', *, *, #310, .T. ) ;
#343 =( GEOMETRIC_REPRESENTATION_CONTEXT ( 3 ) GLOBAL_UNCERTAINTY_ASSIGNED_CONTEXT ( ( #335 ) ) GLOBAL_UNIT_ASSIGNED_CONTEXT ( ( #73, #231, #254 ) ) REPRESENTATION_CONTEXT ( 'NONE', 'WORKASPACE' ) );
ENDSEC;
END-ISO-10303-21;
