ISO-10303-21;
HEADER;
FILE_DESCRIPTION (( 'STEP AP214' ),
    '1' );
FILE_NAME ('56997.step',
    '2024-04-04T09:56:03',
    ( '' ),
    ( '' ),
    'SwSTEP 2.0',
    'SolidWorks 2022',
    '' );
FILE_SCHEMA (( 'AUTOMOTIVE_DESIGN' ));
ENDSEC;

DATA;
#1 = PRESENTATION_STYLE_ASSIGNMENT (( #88 ) ) ;
#2 = ORIENTED_EDGE ( 'NONE', *, *, #309, .F. ) ;
#3 = ADVANCED_FACE ( 'NONE', ( #123 ), #231, .T. ) ;
#4 = PRODUCT_DEFINITION_FORMATION_WITH_SPECIFIED_SOURCE ( 'ANY', '', #232, .NOT_KNOWN. ) ;
#5 = FACE_OUTER_BOUND ( 'NONE', #102, .T. ) ;
#6 = DIRECTION ( 'NONE',  ( 1.000000000000000000, 0.000000000000000000, -3.336006684570784482E-15 ) ) ;
#7 = CIRCLE ( 'NONE', #42, 1.300000000000000044 ) ;
#8 = AXIS2_PLACEMENT_3D ( 'NONE', #208, #184, #290 ) ;
#9 = DIRECTION ( 'NONE',  ( -1.000000000000000000, 0.000000000000000000, 3.491481338843133355E-15 ) ) ;
#10 = LINE ( 'NONE', #117, #312 ) ;
#11 = FACE_OUTER_BOUND ( 'NONE', #293, .T. ) ;
#12 = DIRECTION ( 'NONE',  ( 3.491481338843133355E-15, -1.224646799147353207E-16, 1.000000000000000000 ) ) ;
#13 =( NAMED_UNIT ( * ) PLANE_ANGLE_UNIT ( ) SI_UNIT ( $, .RADIAN. ) );
#14 = FACE_OUTER_BOUND ( 'NONE', #146, .T. ) ;
#15 = ORIENTED_EDGE ( 'NONE', *, *, #289, .F. ) ;
#16 = FILL_AREA_STYLE ('',( #326 ) ) ;
#17 = DIRECTION ( 'NONE',  ( 0.000000000000000000, 1.000000000000000000, 0.000000000000000000 ) ) ;
#18 = EDGE_CURVE ( 'NONE', #22, #25, #194, .T. ) ;
#19 = FILL_AREA_STYLE_COLOUR ( '', #41 ) ;
#20 = DIRECTION ( 'NONE',  ( -3.491481338843133355E-15, 1.224646799147356658E-16, -1.000000000000000000 ) ) ;
#21 = AXIS2_PLACEMENT_3D ( 'NONE', #253, #336, #308 ) ;
#22 = VERTEX_POINT ( 'NONE', #195 ) ;
#23 = DIRECTION ( 'NONE',  ( 3.491481338843133355E-15, -0.000000000000000000, 1.000000000000000000 ) ) ;
#24 = PRODUCT_DEFINITION ( 'UNKNOWN', '', #4, #269 ) ;
#25 = VERTEX_POINT ( 'NONE', #144 ) ;
#26 = DIRECTION ( 'NONE',  ( -3.491481338843133355E-15, 1.224646799147353207E-16, -1.000000000000000000 ) ) ;
#27 = MECHANICAL_DESIGN_GEOMETRIC_PRESENTATION_REPRESENTATION (  '', ( #300 ), #59 ) ;
#28 = CARTESIAN_POINT ( 'NONE',  ( 1.316288464743860959E-13, 1.499999999999992228, 37.69999999999998863 ) ) ;
#29 = CARTESIAN_POINT ( 'NONE',  ( 1.300000000000018696, 0.000000000000000000, 5.499999999999995559 ) ) ;
#30 = ADVANCED_FACE ( 'NONE', ( #14 ), #198, .T. ) ;
#31 = ORIENTED_EDGE ( 'NONE', *, *, #18, .T. ) ;
#32 = PLANE ( 'NONE',  #342 ) ;
#33 = DIRECTION ( 'NONE',  ( 3.491481338843133355E-15, -0.000000000000000000, 1.000000000000000000 ) ) ;
#34 = DIRECTION ( 'NONE',  ( 3.491481338843133355E-15, -0.000000000000000000, 1.000000000000000000 ) ) ;
#35 = ADVANCED_FACE ( 'NONE', ( #304 ), #133, .T. ) ;
#36 = VECTOR ( 'NONE', #211, 999.9999999999998863 ) ;
#37 = ORIENTED_EDGE ( 'NONE', *, *, #274, .T. ) ;
#38 = FACE_OUTER_BOUND ( 'NONE', #271, .T. ) ;
#39 = CARTESIAN_POINT ( 'NONE',  ( 1.920314736363723345E-14, -6.735557395310442023E-16, 5.500000000000000000 ) ) ;
#40 = CIRCLE ( 'NONE', #325, 1.499999999999996003 ) ;
#41 = COLOUR_RGB ( '',1.000000000000000000, 1.000000000000000000, 1.000000000000000000 ) ;
#42 = AXIS2_PLACEMENT_3D ( 'NONE', #65, #150, #17 ) ;
#43 = ORIENTED_EDGE ( 'NONE', *, *, #334, .F. ) ;
#44 = DIRECTION ( 'NONE',  ( -3.491481338843133355E-15, 1.224646799147353207E-16, -1.000000000000000000 ) ) ;
#45 = CIRCLE ( 'NONE', #279, 1.299999999999999378 ) ;
#46 = EDGE_CURVE ( 'NONE', #22, #203, #7, .T. ) ;
#47 = DIRECTION ( 'NONE',  ( -3.491481338843133355E-15, 1.224646799147353207E-16, -1.000000000000000000 ) ) ;
#48 = LINE ( 'NONE', #28, #36 ) ;
#49 = ORIENTED_EDGE ( 'NONE', *, *, #202, .T. ) ;
#50 = LINE ( 'NONE', #29, #237 ) ;
#51 = ORIENTED_EDGE ( 'NONE', *, *, #62, .F. ) ;
#52 = DIRECTION ( 'NONE',  ( 4.275831445896958607E-31, 1.000000000000000000, 1.224646799147353454E-16 ) ) ;
#53 = ORIENTED_EDGE ( 'NONE', *, *, #101, .F. ) ;
#54 = AXIS2_PLACEMENT_3D ( 'NONE', #270, #213, #272 ) ;
#55 = ADVANCED_FACE ( 'NONE', ( #173 ), #64, .T. ) ;
#56 = EDGE_LOOP ( 'NONE', ( #209, #77, #49, #224 ) ) ;
#57 = CIRCLE ( 'NONE', #254, 1.499999999999996003 ) ;
#58 = DIRECTION ( 'NONE',  ( 1.000000000000000000, 0.000000000000000000, -3.336006684570784088E-15 ) ) ;
#59 =( GEOMETRIC_REPRESENTATION_CONTEXT ( 3 ) GLOBAL_UNCERTAINTY_ASSIGNED_CONTEXT ( ( #315 ) ) GLOBAL_UNIT_ASSIGNED_CONTEXT ( ( #81, #261, #152 ) ) REPRESENTATION_CONTEXT ( 'NONE', 'WORKASPACE' ) );
#60 = CARTESIAN_POINT ( 'NONE',  ( 1.323178959930974653E-13, -1.199999999999993294, 38.00000000000000000 ) ) ;
#61 = CONICAL_SURFACE ( 'NONE', #264, 1.499999999999996669, 0.7853981633974472798 ) ;
#62 = EDGE_CURVE ( 'NONE', #95, #160, #148, .T. ) ;
#63 = ORIENTED_EDGE ( 'NONE', *, *, #274, .F. ) ;
#64 = PLANE ( 'NONE',  #236 ) ;
#65 = CARTESIAN_POINT ( 'NONE',  ( 1.920314736363723345E-14, -6.735557395310442023E-16, 5.500000000000000000 ) ) ;
#66 = AXIS2_PLACEMENT_3D ( 'NONE', #159, #47, #343 ) ;
#67 = MECHANICAL_DESIGN_GEOMETRIC_PRESENTATION_REPRESENTATION (  '', ( #114 ), #174 ) ;
#68 = CARTESIAN_POINT ( 'NONE',  ( 1.920314736363723345E-14, 0.000000000000000000, 5.500000000000000000 ) ) ;
#69 = DIRECTION ( 'NONE',  ( 3.730349362740525976E-14, -1.000000000000000000, 0.000000000000000000 ) ) ;
#70 = EDGE_CURVE ( 'NONE', #130, #25, #40, .T. ) ;
#71 = CIRCLE ( 'NONE', #297, 1.499999999999996669 ) ;
#72 = APPLICATION_CONTEXT ( 'automotive_design' ) ;
#73 = STYLED_ITEM ( 'NONE', ( #83 ), #311 ) ;
#74 = ORIENTED_EDGE ( 'NONE', *, *, #225, .T. ) ;
#75 = CYLINDRICAL_SURFACE ( 'NONE', #199, 1.499999999999996669 ) ;
#76 = VERTEX_POINT ( 'NONE', #330 ) ;
#77 = ORIENTED_EDGE ( 'NONE', *, *, #136, .F. ) ;
#78 = ORIENTED_EDGE ( 'NONE', *, *, #46, .T. ) ;
#79 = PRODUCT_DEFINITION_SHAPE ( 'NONE', 'NONE',  #24 ) ;
#80 = CARTESIAN_POINT ( 'NONE',  ( 1.920314736363723345E-14, -1.300000000000000488, 5.500000000000000000 ) ) ;
#81 =( LENGTH_UNIT ( ) NAMED_UNIT ( * ) SI_UNIT ( .MILLI., .METRE. ) );
#82 = EDGE_LOOP ( 'NONE', ( #212, #78 ) ) ;
#83 = PRESENTATION_STYLE_ASSIGNMENT (( #245 ) ) ;
#84 = CYLINDRICAL_SURFACE ( 'NONE', #275, 1.299999999999999600 ) ;
#85 = CLOSED_SHELL ( 'NONE', ( #3, #284, #177, #164 ) ) ;
#86 = FACE_OUTER_BOUND ( 'NONE', #157, .T. ) ;
#87 = FILL_AREA_STYLE ('',( #324 ) ) ;
#88 = SURFACE_STYLE_USAGE ( .BOTH. , #139 ) ;
#89 = CARTESIAN_POINT ( 'NONE',  ( 1.300000000000018696, 0.000000000000000000, 5.499999999999995559 ) ) ;
#90 = SHAPE_DEFINITION_REPRESENTATION ( #79, #219 ) ;
#91 = ADVANCED_FACE ( 'NONE', ( #277 ), #278, .T. ) ;
#92 = DIRECTION ( 'NONE',  ( 0.000000000000000000, -1.000000000000000000, 0.000000000000000000 ) ) ;
#93 = CIRCLE ( 'NONE', #230, 1.300000000000000044 ) ;
#94 = DIRECTION ( 'NONE',  ( -3.491481338843133355E-15, 1.224646799147353207E-16, -1.000000000000000000 ) ) ;
#95 = VERTEX_POINT ( 'NONE', #125 ) ;
#96 = CARTESIAN_POINT ( 'NONE',  ( 1.936235144752638788E-14, 1.299999999999999378, 5.500000000000000000 ) ) ;
#97 = CARTESIAN_POINT ( 'NONE',  ( 1.318125434942581860E-13, -1.500000000000001332, 37.69999999999998863 ) ) ;
#98 = APPLICATION_PROTOCOL_DEFINITION ( 'draft international standard', 'automotive_design', 1998, #72 ) ;
#99 = PRESENTATION_LAYER_ASSIGNMENT (  '', '', ( #300 ) ) ;
#100 = CARTESIAN_POINT ( 'NONE',  ( 1.326762908760390423E-13, -4.653657836759941941E-15, 38.00000000000000000 ) ) ;
#101 = EDGE_CURVE ( 'NONE', #338, #95, #333, .T. ) ;
#102 = EDGE_LOOP ( 'NONE', ( #63, #291, #107, #242 ) ) ;
#103 = ORIENTED_EDGE ( 'NONE', *, *, #215, .T. ) ;
#104 = CARTESIAN_POINT ( 'NONE',  ( 2.017450729532158173E-14, -1.300000000000000488, 5.500000000000000000 ) ) ;
#105 = CIRCLE ( 'NONE', #66, 1.300000000000000044 ) ;
#106 = AXIS2_PLACEMENT_3D ( 'NONE', #241, #319, #140 ) ;
#107 = ORIENTED_EDGE ( 'NONE', *, *, #240, .T. ) ;
#108 = VERTEX_POINT ( 'NONE', #281 ) ;
#109 = CIRCLE ( 'NONE', #155, 1.299999999999999378 ) ;
#110 = PLANE ( 'NONE',  #244 ) ;
#111 = CARTESIAN_POINT ( 'NONE',  ( 1.920314736363723345E-14, 0.000000000000000000, 5.500000000000000000 ) ) ;
#112 = CIRCLE ( 'NONE', #54, 1.300000000000000044 ) ;
#113 = DIRECTION ( 'NONE',  ( 1.000000000000000000, 0.000000000000000000, -3.491481338843133355E-15 ) ) ;
#114 = STYLED_ITEM ( 'NONE', ( #339 ), #306 ) ;
#115 = EDGE_CURVE ( 'NONE', #160, #95, #71, .T. ) ;
#116 = CARTESIAN_POINT ( 'NONE',  ( 1.920314736363723345E-14, 0.000000000000000000, 5.500000000000000000 ) ) ;
#117 = CARTESIAN_POINT ( 'NONE',  ( 6.413747168845423897E-31, 1.499999999999996669, 1.836970198721025990E-16 ) ) ;
#118 = DIRECTION ( 'NONE',  ( 0.000000000000000000, 1.000000000000000000, 0.000000000000000000 ) ) ;
#119 = DIRECTION ( 'NONE',  ( -4.275831445896958607E-31, -1.000000000000000000, -1.224646799147353207E-16 ) ) ;
#120 = CARTESIAN_POINT ( 'NONE',  ( 1.836970198721019580E-16, -1.499999999999996669, -1.836970198721032153E-16 ) ) ;
#121 = CARTESIAN_POINT ( 'NONE',  ( 1.920314736363723345E-14, -6.735557395310442023E-16, 5.500000000000000000 ) ) ;
#122 = VECTOR ( 'NONE', #314, 999.9999999999998863 ) ;
#123 = FACE_OUTER_BOUND ( 'NONE', #162, .T. ) ;
#124 =( LENGTH_UNIT ( ) NAMED_UNIT ( * ) SI_UNIT ( .MILLI., .METRE. ) );
#125 = CARTESIAN_POINT ( 'NONE',  ( 7.657105387056803997E-14, -1.500000000000001332, 37.69999999999998863 ) ) ;
#126 = CARTESIAN_POINT ( 'NONE',  ( 2.114586722700593316E-14, -7.416971795509632320E-16, 6.056417083418351943 ) ) ;
#127 = APPLICATION_PROTOCOL_DEFINITION ( 'draft international standard', 'automotive_design', 1998, #158 ) ;
#128 = ORIENTED_EDGE ( 'NONE', *, *, #309, .T. ) ;
#129 = EDGE_CURVE ( 'NONE', #25, #130, #57, .T. ) ;
#130 = VERTEX_POINT ( 'NONE', #239 ) ;
#131 = ORIENTED_EDGE ( 'NONE', *, *, #70, .F. ) ;
#132 = VECTOR ( 'NONE', #178, 1000.000000000000000 ) ;
#133 = CONICAL_SURFACE ( 'NONE', #322, 1.300000000000000044, 0.3450620389298187374 ) ;
#134 = UNCERTAINTY_MEASURE_WITH_UNIT (LENGTH_MEASURE( 1.000000000000000082E-05 ), #145, 'distance_accuracy_value', 'NONE');
#135 = ORIENTED_EDGE ( 'NONE', *, *, #129, .F. ) ;
#136 = EDGE_CURVE ( 'NONE', #203, #22, #105, .T. ) ;
#137 = SURFACE_STYLE_FILL_AREA ( #87 ) ;
#138 = DIRECTION ( 'NONE',  ( 3.491481338843133355E-15, -0.000000000000000000, 1.000000000000000000 ) ) ;
#139 = SURFACE_SIDE_STYLE ('',( #137 ) ) ;
#140 = DIRECTION ( 'NONE',  ( 0.000000000000000000, -1.000000000000000000, 0.000000000000000000 ) ) ;
#141 =( NAMED_UNIT ( * ) PLANE_ANGLE_UNIT ( ) SI_UNIT ( $, .RADIAN. ) );
#142 = DIRECTION ( 'NONE',  ( 0.000000000000000000, 1.000000000000000000, 0.000000000000000000 ) ) ;
#143 = ADVANCED_FACE ( 'NONE', ( #266 ), #210, .T. ) ;
#144 = CARTESIAN_POINT ( 'NONE',  ( 2.114586722700593316E-14, 1.499999999999995337, 6.056417083418351943 ) ) ;
#145 =( LENGTH_UNIT ( ) NAMED_UNIT ( * ) SI_UNIT ( .MILLI., .METRE. ) );
#146 = EDGE_LOOP ( 'NONE', ( #207, #103 ) ) ;
#147 = MECHANICAL_DESIGN_GEOMETRIC_PRESENTATION_REPRESENTATION (  '', ( #73 ), #216 ) ;
#148 = CIRCLE ( 'NONE', #192, 1.499999999999996669 ) ;
#149 = ORIENTED_EDGE ( 'NONE', *, *, #215, .F. ) ;
#150 = DIRECTION ( 'NONE',  ( -3.491481338843133355E-15, 1.224646799147353207E-16, -1.000000000000000000 ) ) ;
#151 = PRODUCT_CONTEXT ( 'NONE', #72, 'mechanical' ) ;
#152 =( NAMED_UNIT ( * ) SI_UNIT ( $, .STERADIAN. ) SOLID_ANGLE_UNIT ( ) );
#153 = EDGE_CURVE ( 'NONE', #190, #76, #112, .T. ) ;
#154 = CARTESIAN_POINT ( 'NONE',  ( -1.299999999999980060, 1.592040838891558602E-16, 5.500000000000004441 ) ) ;
#155 = AXIS2_PLACEMENT_3D ( 'NONE', #116, #327, #318 ) ;
#156 = ORIENTED_EDGE ( 'NONE', *, *, #202, .F. ) ;
#157 = EDGE_LOOP ( 'NONE', ( #229, #201 ) ) ;
#158 = APPLICATION_CONTEXT ( 'automotive_design' ) ;
#159 = CARTESIAN_POINT ( 'NONE',  ( 1.920314736363723345E-14, -6.735557395310442023E-16, 5.500000000000000000 ) ) ;
#160 = VERTEX_POINT ( 'NONE', #243 ) ;
#161 = DIRECTION ( 'NONE',  ( 3.491481338843133355E-15, -1.224646799147353207E-16, 1.000000000000000000 ) ) ;
#162 = EDGE_LOOP ( 'NONE', ( #301, #37, #43, #263 ) ) ;
#163 = FACE_OUTER_BOUND ( 'NONE', #185, .T. ) ;
#164 = ADVANCED_FACE ( 'NONE', ( #86 ), #110, .F. ) ;
#165 =( LENGTH_UNIT ( ) NAMED_UNIT ( * ) SI_UNIT ( .MILLI., .METRE. ) );
#166 = VECTOR ( 'NONE', #94, 1000.000000000000000 ) ;
#167 = DIRECTION ( 'NONE',  ( -3.491481338843133355E-15, 1.224646799147353207E-16, -1.000000000000000000 ) ) ;
#168 = PRESENTATION_LAYER_ASSIGNMENT (  '', '', ( #73 ) ) ;
#169 = LINE ( 'NONE', #191, #323 ) ;
#170 = EDGE_CURVE ( 'NONE', #182, #171, #109, .T. ) ;
#171 = VERTEX_POINT ( 'NONE', #89 ) ;
#172 = EDGE_LOOP ( 'NONE', ( #341, #31, #233, #156 ) ) ;
#173 = FACE_OUTER_BOUND ( 'NONE', #82, .T. ) ;
#174 =( GEOMETRIC_REPRESENTATION_CONTEXT ( 3 ) GLOBAL_UNCERTAINTY_ASSIGNED_CONTEXT ( ( #134 ) ) GLOBAL_UNIT_ASSIGNED_CONTEXT ( ( #145, #282, #175 ) ) REPRESENTATION_CONTEXT ( 'NONE', 'WORKASPACE' ) );
#175 =( NAMED_UNIT ( * ) SI_UNIT ( $, .STERADIAN. ) SOLID_ANGLE_UNIT ( ) );
#176 = DIRECTION ( 'NONE',  ( 0.000000000000000000, -1.000000000000000000, 0.000000000000000000 ) ) ;
#177 = ADVANCED_FACE ( 'NONE', ( #163 ), #32, .F. ) ;
#178 = DIRECTION ( 'NONE',  ( -2.382254525458719047E-15, -0.7071067811865466846, -0.7071067811865483499 ) ) ;
#179 = AXIS2_PLACEMENT_3D ( 'NONE', #188, #161, #286 ) ;
#180 = CLOSED_SHELL ( 'NONE', ( #313, #91, #143, #55, #30, #250, #35, #189 ) ) ;
#181 = DIRECTION ( 'NONE',  ( -3.491481338843133355E-15, 0.000000000000000000, -1.000000000000000000 ) ) ;
#182 = VERTEX_POINT ( 'NONE', #154 ) ;
#183 = LINE ( 'NONE', #80, #122 ) ;
#184 = DIRECTION ( 'NONE',  ( 0.000000000000000000, 0.000000000000000000, 1.000000000000000000 ) ) ;
#185 = EDGE_LOOP ( 'NONE', ( #251, #252 ) ) ;
#186 = DIRECTION ( 'NONE',  ( 4.275831445896958607E-31, 1.000000000000000000, 1.224646799147353454E-16 ) ) ;
#187 = ORIENTED_EDGE ( 'NONE', *, *, #115, .F. ) ;
#188 = CARTESIAN_POINT ( 'NONE',  ( 1.326762908760390423E-13, -4.653657836759941941E-15, 38.00000000000000000 ) ) ;
#189 = ADVANCED_FACE ( 'NONE', ( #38 ), #220, .T. ) ;
#190 = VERTEX_POINT ( 'NONE', #214 ) ;
#191 = CARTESIAN_POINT ( 'NONE',  ( -1.299999999999980282, 1.592040838891558602E-16, 5.500000000000004441 ) ) ;
#192 = AXIS2_PLACEMENT_3D ( 'NONE', #227, #305, #307 ) ;
#193 = CARTESIAN_POINT ( 'NONE',  ( 2.114586722700593316E-14, -7.416971795509632320E-16, 6.056417083418351943 ) ) ;
#194 = LINE ( 'NONE', #96, #205 ) ;
#195 = CARTESIAN_POINT ( 'NONE',  ( 2.034595784720221346E-14, 1.299999999999999378, 5.500000000000000000 ) ) ;
#196 = SURFACE_SIDE_STYLE ('',( #332 ) ) ;
#197 = AXIS2_PLACEMENT_3D ( 'NONE', #292, #26, #186 ) ;
#198 = PLANE ( 'NONE',  #204 ) ;
#199 = AXIS2_PLACEMENT_3D ( 'NONE', #287, #288, #52 ) ;
#200 = DIRECTION ( 'NONE',  ( 4.275831445896958607E-31, 1.000000000000000000, 1.224646799147353207E-16 ) ) ;
#201 = ORIENTED_EDGE ( 'NONE', *, *, #298, .F. ) ;
#202 = EDGE_CURVE ( 'NONE', #203, #130, #183, .T. ) ;
#203 = VERTEX_POINT ( 'NONE', #104 ) ;
#204 = AXIS2_PLACEMENT_3D ( 'NONE', #100, #331, #119 ) ;
#205 = VECTOR ( 'NONE', #328, 1000.000000000000114 ) ;
#206 =( NAMED_UNIT ( * ) SI_UNIT ( $, .STERADIAN. ) SOLID_ANGLE_UNIT ( ) );
#207 = ORIENTED_EDGE ( 'NONE', *, *, #268, .T. ) ;
#208 = CARTESIAN_POINT ( 'NONE',  ( 0.000000000000000000, 0.000000000000000000, 0.000000000000000000 ) ) ;
#209 = ORIENTED_EDGE ( 'NONE', *, *, #18, .F. ) ;
#210 = CYLINDRICAL_SURFACE ( 'NONE', #197, 1.499999999999996669 ) ;
#211 = DIRECTION ( 'NONE',  ( -2.468850131082267710E-15, 0.7071067811865469066, -0.7071067811865482389 ) ) ;
#212 = ORIENTED_EDGE ( 'NONE', *, *, #136, .T. ) ;
#213 = DIRECTION ( 'NONE',  ( 3.491481338843133355E-15, -0.000000000000000000, 1.000000000000000000 ) ) ;
#214 = CARTESIAN_POINT ( 'NONE',  ( 1.300000000000000044, 0.000000000000000000, -4.538925740496073362E-15 ) ) ;
#215 = EDGE_CURVE ( 'NONE', #338, #108, #316, .T. ) ;
#216 =( GEOMETRIC_REPRESENTATION_CONTEXT ( 3 ) GLOBAL_UNCERTAINTY_ASSIGNED_CONTEXT ( ( #262 ) ) GLOBAL_UNIT_ASSIGNED_CONTEXT ( ( #165, #141, #249 ) ) REPRESENTATION_CONTEXT ( 'NONE', 'WORKASPACE' ) );
#217 = ORIENTED_EDGE ( 'NONE', *, *, #101, .T. ) ;
#218 = CARTESIAN_POINT ( 'NONE',  ( 5.344789307371193879E-32, 1.300000000000000044, 1.530808498934190585E-17 ) ) ;
#219 = ADVANCED_BREP_SHAPE_REPRESENTATION ( '56997', ( #306, #311, #8 ), #273 ) ;
#220 = CONICAL_SURFACE ( 'NONE', #21, 1.499999999999996669, 0.7853981633974472798 ) ;
#221 = AXIS2_PLACEMENT_3D ( 'NONE', #39, #280, #176 ) ;
#222 = DIRECTION ( 'NONE',  ( 3.491481338843133355E-15, -0.000000000000000000, 1.000000000000000000 ) ) ;
#223 = CARTESIAN_POINT ( 'NONE',  ( 1.920314736363723345E-14, 0.000000000000000000, 5.500000000000000000 ) ) ;
#224 = ORIENTED_EDGE ( 'NONE', *, *, #70, .T. ) ;
#225 = EDGE_CURVE ( 'NONE', #108, #160, #48, .T. ) ;
#226 = PRESENTATION_LAYER_ASSIGNMENT (  '', '', ( #114 ) ) ;
#227 = CARTESIAN_POINT ( 'NONE',  ( 1.316288464743860959E-13, -4.616918432785520292E-15, 37.69999999999998863 ) ) ;
#228 = DIRECTION ( 'NONE',  ( 1.000000000000000000, 0.000000000000000000, -3.336006684570784088E-15 ) ) ;
#229 = ORIENTED_EDGE ( 'NONE', *, *, #153, .F. ) ;
#230 = AXIS2_PLACEMENT_3D ( 'NONE', #321, #222, #113 ) ;
#231 = CYLINDRICAL_SURFACE ( 'NONE', #257, 1.299999999999999600 ) ;
#232 = PRODUCT ( '56997', '56997', '', ( #151 ) ) ;
#233 = ORIENTED_EDGE ( 'NONE', *, *, #129, .T. ) ;
#234 = ORIENTED_EDGE ( 'NONE', *, *, #289, .T. ) ;
#235 = FILL_AREA_STYLE ('',( #19 ) ) ;
#236 = AXIS2_PLACEMENT_3D ( 'NONE', #335, #44, #200 ) ;
#237 = VECTOR ( 'NONE', #23, 1000.000000000000000 ) ;
#238 = EDGE_LOOP ( 'NONE', ( #2, #295, #234, #131 ) ) ;
#239 = CARTESIAN_POINT ( 'NONE',  ( 7.657105387056810307E-14, -1.499999999999996669, 6.056417083418351943 ) ) ;
#240 = EDGE_CURVE ( 'NONE', #190, #171, #50, .T. ) ;
#241 = CARTESIAN_POINT ( 'NONE',  ( 1.326762908760390423E-13, -4.653657836759941941E-15, 38.00000000000000000 ) ) ;
#242 = ORIENTED_EDGE ( 'NONE', *, *, #170, .F. ) ;
#243 = CARTESIAN_POINT ( 'NONE',  ( 7.638735685069601297E-14, 1.499999999999992228, 37.69999999999998863 ) ) ;
#244 = AXIS2_PLACEMENT_3D ( 'NONE', #218, #138, #246 ) ;
#245 = SURFACE_STYLE_USAGE ( .BOTH. , #299 ) ;
#246 = DIRECTION ( 'NONE',  ( 1.000000000000000000, 0.000000000000000000, -3.491481338843133355E-15 ) ) ;
#247 = DIRECTION ( 'NONE',  ( 3.491481338843133355E-15, -0.000000000000000000, 1.000000000000000000 ) ) ;
#248 = CIRCLE ( 'NONE', #106, 1.199999999999988853 ) ;
#249 =( NAMED_UNIT ( * ) SI_UNIT ( $, .STERADIAN. ) SOLID_ANGLE_UNIT ( ) );
#250 = ADVANCED_FACE ( 'NONE', ( #294 ), #75, .T. ) ;
#251 = ORIENTED_EDGE ( 'NONE', *, *, #334, .T. ) ;
#252 = ORIENTED_EDGE ( 'NONE', *, *, #170, .T. ) ;
#253 = CARTESIAN_POINT ( 'NONE',  ( 1.316288464743860959E-13, -4.616918432785520292E-15, 37.69999999999998863 ) ) ;
#254 = AXIS2_PLACEMENT_3D ( 'NONE', #126, #283, #142 ) ;
#255 = CARTESIAN_POINT ( 'NONE',  ( 1.316288464743860959E-13, -4.616918432785520292E-15, 37.69999999999998863 ) ) ;
#256 = ORIENTED_EDGE ( 'NONE', *, *, #268, .F. ) ;
#257 = AXIS2_PLACEMENT_3D ( 'NONE', #68, #258, #228 ) ;
#258 = DIRECTION ( 'NONE',  ( 3.491481338843133355E-15, -0.000000000000000000, 1.000000000000000000 ) ) ;
#259 = LINE ( 'NONE', #120, #166 ) ;
#260 = CARTESIAN_POINT ( 'NONE',  ( 1.316288464743860959E-13, -4.616918432785520292E-15, 37.69999999999998863 ) ) ;
#261 =( NAMED_UNIT ( * ) PLANE_ANGLE_UNIT ( ) SI_UNIT ( $, .RADIAN. ) );
#262 = UNCERTAINTY_MEASURE_WITH_UNIT (LENGTH_MEASURE( 1.000000000000000082E-05 ), #165, 'distance_accuracy_value', 'NONE');
#263 = ORIENTED_EDGE ( 'NONE', *, *, #240, .F. ) ;
#264 = AXIS2_PLACEMENT_3D ( 'NONE', #255, #320, #118 ) ;
#265 = ORIENTED_EDGE ( 'NONE', *, *, #225, .F. ) ;
#266 = FACE_OUTER_BOUND ( 'NONE', #310, .T. ) ;
#267 = COLOUR_RGB ( '',1.000000000000000000, 1.000000000000000000, 1.000000000000000000 ) ;
#268 = EDGE_CURVE ( 'NONE', #108, #338, #248, .T. ) ;
#269 = PRODUCT_DEFINITION_CONTEXT ( 'detailed design', #158, 'design' ) ;
#270 = CARTESIAN_POINT ( 'NONE',  ( 0.000000000000000000, 0.000000000000000000, 0.000000000000000000 ) ) ;
#271 = EDGE_LOOP ( 'NONE', ( #53, #256, #74, #51 ) ) ;
#272 = DIRECTION ( 'NONE',  ( 1.000000000000000000, 0.000000000000000000, -3.491481338843133355E-15 ) ) ;
#273 =( GEOMETRIC_REPRESENTATION_CONTEXT ( 3 ) GLOBAL_UNCERTAINTY_ASSIGNED_CONTEXT ( ( #337 ) ) GLOBAL_UNIT_ASSIGNED_CONTEXT ( ( #124, #13, #206 ) ) REPRESENTATION_CONTEXT ( 'NONE', 'WORKASPACE' ) );
#274 = EDGE_CURVE ( 'NONE', #76, #182, #169, .T. ) ;
#275 = AXIS2_PLACEMENT_3D ( 'NONE', #111, #247, #58 ) ;
#276 = DIRECTION ( 'NONE',  ( 0.000000000000000000, 1.000000000000000000, 0.000000000000000000 ) ) ;
#277 = FACE_OUTER_BOUND ( 'NONE', #172, .T. ) ;
#278 = CONICAL_SURFACE ( 'NONE', #221, 1.300000000000000044, 0.3450620389298187374 ) ;
#279 = AXIS2_PLACEMENT_3D ( 'NONE', #223, #33, #6 ) ;
#280 = DIRECTION ( 'NONE',  ( 3.491481338843133355E-15, -1.224646799147353207E-16, 1.000000000000000000 ) ) ;
#281 = CARTESIAN_POINT ( 'NONE',  ( 1.321525686752125943E-13, 1.199999999999984190, 38.00000000000000000 ) ) ;
#282 =( NAMED_UNIT ( * ) PLANE_ANGLE_UNIT ( ) SI_UNIT ( $, .RADIAN. ) );
#283 = DIRECTION ( 'NONE',  ( -3.491481338843133355E-15, 1.224646799147353207E-16, -1.000000000000000000 ) ) ;
#284 = ADVANCED_FACE ( 'NONE', ( #5 ), #84, .T. ) ;
#285 = COLOUR_RGB ( '',1.000000000000000000, 1.000000000000000000, 1.000000000000000000 ) ;
#286 = DIRECTION ( 'NONE',  ( 0.000000000000000000, -1.000000000000000000, 0.000000000000000000 ) ) ;
#287 = CARTESIAN_POINT ( 'NONE',  ( 0.000000000000000000, 0.000000000000000000, 0.000000000000000000 ) ) ;
#288 = DIRECTION ( 'NONE',  ( -3.491481338843133355E-15, 1.224646799147353207E-16, -1.000000000000000000 ) ) ;
#289 = EDGE_CURVE ( 'NONE', #160, #25, #10, .T. ) ;
#290 = DIRECTION ( 'NONE',  ( 1.000000000000000000, 0.000000000000000000, 0.000000000000000000 ) ) ;
#291 = ORIENTED_EDGE ( 'NONE', *, *, #298, .T. ) ;
#292 = CARTESIAN_POINT ( 'NONE',  ( 0.000000000000000000, 0.000000000000000000, 0.000000000000000000 ) ) ;
#293 = EDGE_LOOP ( 'NONE', ( #149, #217, #187, #265 ) ) ;
#294 = FACE_OUTER_BOUND ( 'NONE', #238, .T. ) ;
#295 = ORIENTED_EDGE ( 'NONE', *, *, #62, .T. ) ;
#296 = SURFACE_STYLE_FILL_AREA ( #235 ) ;
#297 = AXIS2_PLACEMENT_3D ( 'NONE', #260, #20, #69 ) ;
#298 = EDGE_CURVE ( 'NONE', #76, #190, #93, .T. ) ;
#299 = SURFACE_SIDE_STYLE ('',( #296 ) ) ;
#300 = STYLED_ITEM ( 'NONE', ( #1 ), #219 ) ;
#301 = ORIENTED_EDGE ( 'NONE', *, *, #153, .T. ) ;
#302 = SURFACE_STYLE_USAGE ( .BOTH. , #196 ) ;
#303 = DIRECTION ( 'NONE',  ( -3.491481338843133355E-15, 1.224646799147353207E-16, -1.000000000000000000 ) ) ;
#304 = FACE_OUTER_BOUND ( 'NONE', #56, .T. ) ;
#305 = DIRECTION ( 'NONE',  ( -3.491481338843133355E-15, 1.224646799147356658E-16, -1.000000000000000000 ) ) ;
#306 = MANIFOLD_SOLID_BREP ( 'Corps-Déplacer/Copier1[1]', #180 ) ;
#307 = DIRECTION ( 'NONE',  ( -3.641531520770512822E-14, -1.000000000000000000, 0.000000000000000000 ) ) ;
#308 = DIRECTION ( 'NONE',  ( 0.000000000000000000, 1.000000000000000000, 0.000000000000000000 ) ) ;
#309 = EDGE_CURVE ( 'NONE', #95, #130, #259, .T. ) ;
#310 = EDGE_LOOP ( 'NONE', ( #317, #128, #135, #15 ) ) ;
#311 = MANIFOLD_SOLID_BREP ( 'Corps-Déplacer/Copier1[2]', #85 ) ;
#312 = VECTOR ( 'NONE', #167, 1000.000000000000000 ) ;
#313 = ADVANCED_FACE ( 'NONE', ( #11 ), #61, .T. ) ;
#314 = DIRECTION ( 'NONE',  ( 3.285674118869262605E-15, -0.3382550599108817835, 0.9410544694355825746 ) ) ;
#315 = UNCERTAINTY_MEASURE_WITH_UNIT (LENGTH_MEASURE( 1.000000000000000082E-05 ), #81, 'distance_accuracy_value', 'NONE');
#316 = CIRCLE ( 'NONE', #179, 1.199999999999988853 ) ;
#317 = ORIENTED_EDGE ( 'NONE', *, *, #115, .T. ) ;
#318 = DIRECTION ( 'NONE',  ( 1.000000000000000000, 0.000000000000000000, -3.336006684570784482E-15 ) ) ;
#319 = DIRECTION ( 'NONE',  ( 3.491481338843133355E-15, -1.224646799147353207E-16, 1.000000000000000000 ) ) ;
#320 = DIRECTION ( 'NONE',  ( -3.491481338843133355E-15, 1.224646799147356658E-16, -1.000000000000000000 ) ) ;
#321 = CARTESIAN_POINT ( 'NONE',  ( 0.000000000000000000, 0.000000000000000000, 0.000000000000000000 ) ) ;
#322 = AXIS2_PLACEMENT_3D ( 'NONE', #121, #12, #92 ) ;
#323 = VECTOR ( 'NONE', #34, 1000.000000000000000 ) ;
#324 = FILL_AREA_STYLE_COLOUR ( '', #267 ) ;
#325 = AXIS2_PLACEMENT_3D ( 'NONE', #193, #303, #276 ) ;
#326 = FILL_AREA_STYLE_COLOUR ( '', #285 ) ;
#327 = DIRECTION ( 'NONE',  ( 3.491481338843133355E-15, -0.000000000000000000, 1.000000000000000000 ) ) ;
#328 = DIRECTION ( 'NONE',  ( 3.327098416510788398E-15, 0.3382550599108816169, 0.9410544694355826856 ) ) ;
#329 = PRODUCT_RELATED_PRODUCT_CATEGORY ( 'part', '', ( #232 ) ) ;
#330 = CARTESIAN_POINT ( 'NONE',  ( -1.300000000000000266, 1.592040838891570928E-16, 4.538925740496074151E-15 ) ) ;
#331 = DIRECTION ( 'NONE',  ( 3.491481338843133355E-15, -1.224646799147353207E-16, 1.000000000000000000 ) ) ;
#332 = SURFACE_STYLE_FILL_AREA ( #16 ) ;
#333 = LINE ( 'NONE', #97, #132 ) ;
#334 = EDGE_CURVE ( 'NONE', #171, #182, #45, .T. ) ;
#335 = CARTESIAN_POINT ( 'NONE',  ( 1.920314736363723345E-14, 1.299999999999999378, 5.500000000000000000 ) ) ;
#336 = DIRECTION ( 'NONE',  ( -3.491481338843133355E-15, 1.224646799147356658E-16, -1.000000000000000000 ) ) ;
#337 = UNCERTAINTY_MEASURE_WITH_UNIT (LENGTH_MEASURE( 1.000000000000000082E-05 ), #124, 'distance_accuracy_value', 'NONE');
#338 = VERTEX_POINT ( 'NONE', #60 ) ;
#339 = PRESENTATION_STYLE_ASSIGNMENT (( #302 ) ) ;
#340 = CARTESIAN_POINT ( 'NONE',  ( 1.920314736363723345E-14, 1.299999999999999378, 5.500000000000000000 ) ) ;
#341 = ORIENTED_EDGE ( 'NONE', *, *, #46, .F. ) ;
#342 = AXIS2_PLACEMENT_3D ( 'NONE', #340, #181, #9 ) ;
#343 = DIRECTION ( 'NONE',  ( 0.000000000000000000, 1.000000000000000000, 0.000000000000000000 ) ) ;
ENDSEC;
END-ISO-10303-21;
