ISO-10303-21;
HEADER;
FILE_DESCRIPTION (( 'STEP AP214' ),
    '1' );
FILE_NAME ('56996.step',
    '2024-04-04T09:56:02',
    ( '' ),
    ( '' ),
    'SwSTEP 2.0',
    'SolidWorks 2022',
    '' );
FILE_SCHEMA (( 'AUTOMOTIVE_DESIGN' ));
ENDSEC;

DATA;
#1 = DIRECTION ( 'NONE',  ( 1.000000000000000000, 0.000000000000000000, -3.491481338843134144E-15 ) ) ;
#2 = ADVANCED_FACE ( 'NONE', ( #253 ), #157, .T. ) ;
#3 = EDGE_CURVE ( 'NONE', #326, #211, #180, .T. ) ;
#4 = PRESENTATION_LAYER_ASSIGNMENT (  '', '', ( #29 ) ) ;
#5 = VERTEX_POINT ( 'NONE', #277 ) ;
#6 = CARTESIAN_POINT ( 'NONE',  ( 1.571166602479410010E-14, -5.510910596163088569E-16, 4.500000000000000000 ) ) ;
#7 = ORIENTED_EDGE ( 'NONE', *, *, #200, .F. ) ;
#8 = CIRCLE ( 'NONE', #193, 1.499999999999996669 ) ;
#9 = AXIS2_PLACEMENT_3D ( 'NONE', #86, #294, #102 ) ;
#10 = VECTOR ( 'NONE', #34, 1000.000000000000000 ) ;
#11 = DIRECTION ( 'NONE',  ( 3.327098416510788398E-15, 0.3382550599108817280, 0.9410544694355825746 ) ) ;
#12 = DIRECTION ( 'NONE',  ( -2.382254525458719047E-15, -0.7071067811865466846, -0.7071067811865483499 ) ) ;
#13 = ADVANCED_FACE ( 'NONE', ( #110 ), #44, .F. ) ;
#14 = DIRECTION ( 'NONE',  ( 3.491481338843133355E-15, -0.000000000000000000, 1.000000000000000000 ) ) ;
#15 = ORIENTED_EDGE ( 'NONE', *, *, #108, .F. ) ;
#16 = CARTESIAN_POINT ( 'NONE',  ( 1.571166602479410010E-14, -5.510910596163088569E-16, 4.500000000000000000 ) ) ;
#17 = DIRECTION ( 'NONE',  ( -3.491481338843133355E-15, 0.000000000000000000, -1.000000000000000000 ) ) ;
#18 = DIRECTION ( 'NONE',  ( 0.000000000000000000, -1.000000000000000000, 0.000000000000000000 ) ) ;
#19 = DIRECTION ( 'NONE',  ( 0.000000000000000000, 1.000000000000000000, 0.000000000000000000 ) ) ;
#20 = FACE_OUTER_BOUND ( 'NONE', #97, .T. ) ;
#21 =( GEOMETRIC_REPRESENTATION_CONTEXT ( 3 ) GLOBAL_UNCERTAINTY_ASSIGNED_CONTEXT ( ( #137 ) ) GLOBAL_UNIT_ASSIGNED_CONTEXT ( ( #51, #115, #317 ) ) REPRESENTATION_CONTEXT ( 'NONE', 'WORKASPACE' ) );
#22 = CARTESIAN_POINT ( 'NONE',  ( 1.571166602479410010E-14, 1.049999999999999600, 4.500000000000000000 ) ) ;
#23 = AXIS2_PLACEMENT_3D ( 'NONE', #81, #188, #119 ) ;
#24 = CARTESIAN_POINT ( 'NONE',  ( 1.805336833797519802E-14, 1.049999999999999600, 4.500000000000000000 ) ) ;
#25 = CARTESIAN_POINT ( 'NONE',  ( 1.050000000000000044, 0.000000000000000000, -3.666055405785290812E-15 ) ) ;
#26 = DIRECTION ( 'NONE',  ( 3.491481338843133355E-15, -0.000000000000000000, 1.000000000000000000 ) ) ;
#27 =( LENGTH_UNIT ( ) NAMED_UNIT ( * ) SI_UNIT ( .MILLI., .METRE. ) );
#28 = AXIS2_PLACEMENT_3D ( 'NONE', #16, #133, #255 ) ;
#29 = STYLED_ITEM ( 'NONE', ( #194 ), #32 ) ;
#30 = ADVANCED_FACE ( 'NONE', ( #48 ), #343, .T. ) ;
#31 = AXIS2_PLACEMENT_3D ( 'NONE', #281, #107, #182 ) ;
#32 = ADVANCED_BREP_SHAPE_REPRESENTATION ( '56996', ( #195, #304, #9 ), #21 ) ;
#33 = ORIENTED_EDGE ( 'NONE', *, *, #192, .T. ) ;
#34 = DIRECTION ( 'NONE',  ( -3.491481338843133355E-15, 1.224646799147353207E-16, -1.000000000000000000 ) ) ;
#35 = LINE ( 'NONE', #64, #247 ) ;
#36 = AXIS2_PLACEMENT_3D ( 'NONE', #187, #17, #214 ) ;
#37 = AXIS2_PLACEMENT_3D ( 'NONE', #6, #170, #96 ) ;
#38 = ORIENTED_EDGE ( 'NONE', *, *, #295, .F. ) ;
#39 = LINE ( 'NONE', #249, #87 ) ;
#40 = ADVANCED_FACE ( 'NONE', ( #314 ), #308, .T. ) ;
#41 = EDGE_LOOP ( 'NONE', ( #150, #155, #73, #305 ) ) ;
#42 = PRODUCT_DEFINITION_CONTEXT ( 'detailed design', #109, 'design' ) ;
#43 = ORIENTED_EDGE ( 'NONE', *, *, #203, .T. ) ;
#44 = PLANE ( 'NONE',  #31 ) ;
#45 = MECHANICAL_DESIGN_GEOMETRIC_PRESENTATION_REPRESENTATION (  '', ( #201 ), #245 ) ;
#46 = FACE_OUTER_BOUND ( 'NONE', #93, .T. ) ;
#47 = PLANE ( 'NONE',  #36 ) ;
#48 = FACE_OUTER_BOUND ( 'NONE', #95, .T. ) ;
#49 = CARTESIAN_POINT ( 'NONE',  ( 1.571166602479410010E-14, -1.050000000000000711, 4.500000000000000000 ) ) ;
#50 = CARTESIAN_POINT ( 'NONE',  ( 1.571166602479410010E-14, 0.000000000000000000, 4.500000000000000000 ) ) ;
#51 =( LENGTH_UNIT ( ) NAMED_UNIT ( * ) SI_UNIT ( .MILLI., .METRE. ) );
#52 = CARTESIAN_POINT ( 'NONE',  ( 1.571166602479410010E-14, 0.000000000000000000, 4.500000000000000000 ) ) ;
#53 = AXIS2_PLACEMENT_3D ( 'NONE', #288, #262, #116 ) ;
#54 = EDGE_LOOP ( 'NONE', ( #209, #15 ) ) ;
#55 = CIRCLE ( 'NONE', #71, 1.049999999999999600 ) ;
#56 =( NAMED_UNIT ( * ) PLANE_ANGLE_UNIT ( ) SI_UNIT ( $, .RADIAN. ) );
#57 = MECHANICAL_DESIGN_GEOMETRIC_PRESENTATION_REPRESENTATION (  '', ( #124 ), #148 ) ;
#58 = CONICAL_SURFACE ( 'NONE', #319, 1.499999999999996669, 0.7853981633974472798 ) ;
#59 = VERTEX_POINT ( 'NONE', #24 ) ;
#60 = FILL_AREA_STYLE_COLOUR ( '', #265 ) ;
#61 = ORIENTED_EDGE ( 'NONE', *, *, #3, .F. ) ;
#62 = SURFACE_SIDE_STYLE ('',( #147 ) ) ;
#63 = ORIENTED_EDGE ( 'NONE', *, *, #123, .T. ) ;
#64 = CARTESIAN_POINT ( 'NONE',  ( 1.584025393870457074E-14, 1.049999999999999600, 4.500000000000000000 ) ) ;
#65 = EDGE_CURVE ( 'NONE', #126, #131, #208, .T. ) ;
#66 = VERTEX_POINT ( 'NONE', #283 ) ;
#67 = CARTESIAN_POINT ( 'NONE',  ( 1.316288464743861212E-13, -4.616918432785521081E-15, 37.69999999999999574 ) ) ;
#68 = ORIENTED_EDGE ( 'NONE', *, *, #200, .T. ) ;
#69 = DIRECTION ( 'NONE',  ( -3.730349362740525976E-14, -1.000000000000000000, 0.000000000000000000 ) ) ;
#70 = CARTESIAN_POINT ( 'NONE',  ( 1.571166602479410010E-14, 0.000000000000000000, 4.500000000000000000 ) ) ;
#71 = AXIS2_PLACEMENT_3D ( 'NONE', #50, #257, #212 ) ;
#72 = AXIS2_PLACEMENT_3D ( 'NONE', #127, #306, #91 ) ;
#73 = ORIENTED_EDGE ( 'NONE', *, *, #3, .T. ) ;
#74 = DIRECTION ( 'NONE',  ( 3.491481338843133355E-15, -0.000000000000000000, 1.000000000000000000 ) ) ;
#75 = EDGE_LOOP ( 'NONE', ( #204, #99 ) ) ;
#76 = DIRECTION ( 'NONE',  ( 1.000000000000000000, 0.000000000000000000, -3.304235192336775906E-15 ) ) ;
#77 = EDGE_CURVE ( 'NONE', #181, #211, #55, .T. ) ;
#78 = ORIENTED_EDGE ( 'NONE', *, *, #259, .T. ) ;
#79 = CLOSED_SHELL ( 'NONE', ( #30, #2, #321, #13 ) ) ;
#80 = CARTESIAN_POINT ( 'NONE',  ( 0.000000000000000000, 0.000000000000000000, 0.000000000000000000 ) ) ;
#81 = CARTESIAN_POINT ( 'NONE',  ( 1.571166602479410010E-14, -5.510910596163088569E-16, 4.500000000000000000 ) ) ;
#82 = ADVANCED_FACE ( 'NONE', ( #20 ), #287, .T. ) ;
#83 = SURFACE_SIDE_STYLE ('',( #117 ) ) ;
#84 = AXIS2_PLACEMENT_3D ( 'NONE', #329, #14, #129 ) ;
#85 = FILL_AREA_STYLE_COLOUR ( '', #168 ) ;
#86 = CARTESIAN_POINT ( 'NONE',  ( 0.000000000000000000, 0.000000000000000000, 0.000000000000000000 ) ) ;
#87 = VECTOR ( 'NONE', #12, 1000.000000000000000 ) ;
#88 = SURFACE_STYLE_FILL_AREA ( #142 ) ;
#89 = LINE ( 'NONE', #228, #210 ) ;
#90 = ORIENTED_EDGE ( 'NONE', *, *, #65, .T. ) ;
#91 = DIRECTION ( 'NONE',  ( 0.000000000000000000, 1.000000000000000000, 0.000000000000000000 ) ) ;
#92 = EDGE_CURVE ( 'NONE', #128, #237, #251, .T. ) ;
#93 = EDGE_LOOP ( 'NONE', ( #198, #233, #340, #297 ) ) ;
#94 = AXIS2_PLACEMENT_3D ( 'NONE', #261, #132, #18 ) ;
#95 = EDGE_LOOP ( 'NONE', ( #302, #146, #332, #61 ) ) ;
#96 = DIRECTION ( 'NONE',  ( 0.000000000000000000, 1.000000000000000000, 0.000000000000000000 ) ) ;
#97 = EDGE_LOOP ( 'NONE', ( #63, #90 ) ) ;
#98 = DIRECTION ( 'NONE',  ( -2.468850131082267710E-15, 0.7071067811865469066, -0.7071067811865482389 ) ) ;
#99 = ORIENTED_EDGE ( 'NONE', *, *, #295, .T. ) ;
#100 = APPLICATION_PROTOCOL_DEFINITION ( 'draft international standard', 'automotive_design', 1998, #109 ) ;
#101 = ORIENTED_EDGE ( 'NONE', *, *, #336, .T. ) ;
#102 = DIRECTION ( 'NONE',  ( 1.000000000000000000, 0.000000000000000000, 0.000000000000000000 ) ) ;
#103 = DIRECTION ( 'NONE',  ( 4.275831445896958607E-31, 1.000000000000000000, 1.224646799147353207E-16 ) ) ;
#104 = CIRCLE ( 'NONE', #220, 1.199999999999995737 ) ;
#105 = CARTESIAN_POINT ( 'NONE',  ( 0.000000000000000000, 0.000000000000000000, 0.000000000000000000 ) ) ;
#106 = CONICAL_SURFACE ( 'NONE', #23, 1.050000000000000044, 0.3450620389298188484 ) ;
#107 = DIRECTION ( 'NONE',  ( 3.491481338843133355E-15, -0.000000000000000000, 1.000000000000000000 ) ) ;
#108 = EDGE_CURVE ( 'NONE', #5, #326, #162, .T. ) ;
#109 = APPLICATION_CONTEXT ( 'automotive_design' ) ;
#110 = FACE_OUTER_BOUND ( 'NONE', #54, .T. ) ;
#111 = CARTESIAN_POINT ( 'NONE',  ( 1.323178959930974906E-13, -1.200000000000000400, 38.00000000000000000 ) ) ;
#112 = SURFACE_STYLE_USAGE ( .BOTH. , #242 ) ;
#113 = FILL_AREA_STYLE ('',( #189 ) ) ;
#114 = CIRCLE ( 'NONE', #84, 1.049999999999999600 ) ;
#115 =( NAMED_UNIT ( * ) PLANE_ANGLE_UNIT ( ) SI_UNIT ( $, .RADIAN. ) );
#116 = DIRECTION ( 'NONE',  ( 0.000000000000000000, 1.000000000000000000, 0.000000000000000000 ) ) ;
#117 = SURFACE_STYLE_FILL_AREA ( #113 ) ;
#118 = VERTEX_POINT ( 'NONE', #166 ) ;
#119 = DIRECTION ( 'NONE',  ( 0.000000000000000000, -1.000000000000000000, 0.000000000000000000 ) ) ;
#120 = ORIENTED_EDGE ( 'NONE', *, *, #219, .T. ) ;
#121 = CIRCLE ( 'NONE', #258, 1.499999999999996003 ) ;
#122 = DIRECTION ( 'NONE',  ( -3.491481338843133355E-15, 1.224646799147359124E-16, -1.000000000000000000 ) ) ;
#123 = EDGE_CURVE ( 'NONE', #131, #126, #104, .T. ) ;
#124 = STYLED_ITEM ( 'NONE', ( #167 ), #304 ) ;
#125 = DIRECTION ( 'NONE',  ( -3.491481338843133355E-15, 1.224646799147353207E-16, -1.000000000000000000 ) ) ;
#126 = VERTEX_POINT ( 'NONE', #111 ) ;
#127 = CARTESIAN_POINT ( 'NONE',  ( 1.316288464743861212E-13, -4.616918432785521081E-15, 37.69999999999999574 ) ) ;
#128 = VERTEX_POINT ( 'NONE', #218 ) ;
#129 = DIRECTION ( 'NONE',  ( 1.000000000000000000, 0.000000000000000000, -3.304235192336776695E-15 ) ) ;
#130 = UNCERTAINTY_MEASURE_WITH_UNIT (LENGTH_MEASURE( 1.000000000000000082E-05 ), #291, 'distance_accuracy_value', 'NONE');
#131 = VERTEX_POINT ( 'NONE', #263 ) ;
#132 = DIRECTION ( 'NONE',  ( 3.491481338843133355E-15, -1.224646799147353207E-16, 1.000000000000000000 ) ) ;
#133 = DIRECTION ( 'NONE',  ( 3.491481338843133355E-15, -1.224646799147353207E-16, 1.000000000000000000 ) ) ;
#134 = ADVANCED_FACE ( 'NONE', ( #316 ), #106, .T. ) ;
#135 = EDGE_LOOP ( 'NONE', ( #7, #120, #33, #335 ) ) ;
#136 = PRESENTATION_LAYER_ASSIGNMENT (  '', '', ( #124 ) ) ;
#137 = UNCERTAINTY_MEASURE_WITH_UNIT (LENGTH_MEASURE( 1.000000000000000082E-05 ), #51, 'distance_accuracy_value', 'NONE');
#138 = DIRECTION ( 'NONE',  ( 3.491481338843133355E-15, -1.224646799147353207E-16, 1.000000000000000000 ) ) ;
#139 = PRODUCT ( '56996', '56996', '', ( #333 ) ) ;
#140 = CARTESIAN_POINT ( 'NONE',  ( 1.326762908760390423E-13, -4.653657836759941941E-15, 38.00000000000000000 ) ) ;
#141 = MECHANICAL_DESIGN_GEOMETRIC_PRESENTATION_REPRESENTATION (  '', ( #29 ), #144 ) ;
#142 = FILL_AREA_STYLE ('',( #85 ) ) ;
#143 = EDGE_CURVE ( 'NONE', #59, #128, #35, .T. ) ;
#144 =( GEOMETRIC_REPRESENTATION_CONTEXT ( 3 ) GLOBAL_UNCERTAINTY_ASSIGNED_CONTEXT ( ( #130 ) ) GLOBAL_UNIT_ASSIGNED_CONTEXT ( ( #291, #56, #190 ) ) REPRESENTATION_CONTEXT ( 'NONE', 'WORKASPACE' ) );
#145 = CARTESIAN_POINT ( 'NONE',  ( 6.413747168845423897E-31, 1.499999999999996669, 1.836970198721025990E-16 ) ) ;
#146 = ORIENTED_EDGE ( 'NONE', *, *, #160, .T. ) ;
#147 = SURFACE_STYLE_FILL_AREA ( #323 ) ;
#148 =( GEOMETRIC_REPRESENTATION_CONTEXT ( 3 ) GLOBAL_UNCERTAINTY_ASSIGNED_CONTEXT ( ( #342 ) ) GLOBAL_UNIT_ASSIGNED_CONTEXT ( ( #27, #334, #331 ) ) REPRESENTATION_CONTEXT ( 'NONE', 'WORKASPACE' ) );
#149 = DIRECTION ( 'NONE',  ( -3.491481338843133355E-15, 1.224646799147353207E-16, -1.000000000000000000 ) ) ;
#150 = ORIENTED_EDGE ( 'NONE', *, *, #160, .F. ) ;
#151 = LINE ( 'NONE', #145, #10 ) ;
#152 = SHAPE_DEFINITION_REPRESENTATION ( #264, #32 ) ;
#153 = ORIENTED_EDGE ( 'NONE', *, *, #92, .T. ) ;
#154 = DIRECTION ( 'NONE',  ( -3.491481338843133355E-15, 1.224646799147353207E-16, -1.000000000000000000 ) ) ;
#155 = ORIENTED_EDGE ( 'NONE', *, *, #108, .T. ) ;
#156 = AXIS2_PLACEMENT_3D ( 'NONE', #70, #186, #76 ) ;
#157 = CYLINDRICAL_SURFACE ( 'NONE', #156, 1.049999999999999822 ) ;
#158 = EDGE_LOOP ( 'NONE', ( #38, #328, #153, #231 ) ) ;
#159 = EDGE_CURVE ( 'NONE', #66, #59, #176, .T. ) ;
#160 = EDGE_CURVE ( 'NONE', #5, #181, #250, .T. ) ;
#161 = DIRECTION ( 'NONE',  ( 3.491481338843133355E-15, -0.000000000000000000, 1.000000000000000000 ) ) ;
#162 = CIRCLE ( 'NONE', #206, 1.050000000000000044 ) ;
#163 = DIRECTION ( 'NONE',  ( -3.491481338843133355E-15, 1.224646799147359124E-16, -1.000000000000000000 ) ) ;
#164 = DIRECTION ( 'NONE',  ( 1.000000000000000000, 0.000000000000000000, -3.304235192336775906E-15 ) ) ;
#165 = DIRECTION ( 'NONE',  ( -3.491481338843133355E-15, 1.224646799147353207E-16, -1.000000000000000000 ) ) ;
#166 = CARTESIAN_POINT ( 'NONE',  ( 7.603951311575194887E-14, -1.500000000000001332, 37.69999999999999574 ) ) ;
#167 = PRESENTATION_STYLE_ASSIGNMENT (( #112 ) ) ;
#168 = COLOUR_RGB ( '',1.000000000000000000, 1.000000000000000000, 1.000000000000000000 ) ;
#169 = ADVANCED_FACE ( 'NONE', ( #222 ), #271, .T. ) ;
#170 = DIRECTION ( 'NONE',  ( -3.491481338843133355E-15, 1.224646799147353207E-16, -1.000000000000000000 ) ) ;
#171 = CARTESIAN_POINT ( 'NONE',  ( 1.316288464743861212E-13, -4.616918432785521081E-15, 37.69999999999999574 ) ) ;
#172 = EDGE_LOOP ( 'NONE', ( #289, #299, #234, #223 ) ) ;
#173 = AXIS2_PLACEMENT_3D ( 'NONE', #171, #122, #197 ) ;
#174 = DIRECTION ( 'NONE',  ( 0.000000000000000000, 1.000000000000000000, 0.000000000000000000 ) ) ;
#175 = APPLICATION_CONTEXT ( 'automotive_design' ) ;
#176 = CIRCLE ( 'NONE', #37, 1.050000000000000044 ) ;
#177 = ORIENTED_EDGE ( 'NONE', *, *, #159, .F. ) ;
#178 = CARTESIAN_POINT ( 'NONE',  ( 0.000000000000000000, 0.000000000000000000, 0.000000000000000000 ) ) ;
#179 = ORIENTED_EDGE ( 'NONE', *, *, #92, .F. ) ;
#180 = LINE ( 'NONE', #184, #296 ) ;
#181 = VERTEX_POINT ( 'NONE', #205 ) ;
#182 = DIRECTION ( 'NONE',  ( 1.000000000000000000, 0.000000000000000000, -3.491481338843133355E-15 ) ) ;
#183 = DIRECTION ( 'NONE',  ( 3.285674118869262210E-15, -0.3382550599108818945, 0.9410544694355824635 ) ) ;
#184 = CARTESIAN_POINT ( 'NONE',  ( 1.050000000000015365, 0.000000000000000000, 4.499999999999996447 ) ) ;
#185 = DIRECTION ( 'NONE',  ( 4.275831445896958607E-31, 1.000000000000000000, 1.224646799147353454E-16 ) ) ;
#186 = DIRECTION ( 'NONE',  ( 3.491481338843133355E-15, -0.000000000000000000, 1.000000000000000000 ) ) ;
#187 = CARTESIAN_POINT ( 'NONE',  ( 1.571166602479410010E-14, 1.049999999999999600, 4.500000000000000000 ) ) ;
#188 = DIRECTION ( 'NONE',  ( 3.491481338843133355E-15, -1.224646799147353207E-16, 1.000000000000000000 ) ) ;
#189 = FILL_AREA_STYLE_COLOUR ( '', #241 ) ;
#190 =( NAMED_UNIT ( * ) SI_UNIT ( $, .STERADIAN. ) SOLID_ANGLE_UNIT ( ) );
#191 = AXIS2_PLACEMENT_3D ( 'NONE', #80, #74, #278 ) ;
#192 = EDGE_CURVE ( 'NONE', #307, #128, #151, .T. ) ;
#193 = AXIS2_PLACEMENT_3D ( 'NONE', #67, #224, #69 ) ;
#194 = PRESENTATION_STYLE_ASSIGNMENT (( #221 ) ) ;
#195 = MANIFOLD_SOLID_BREP ( 'Corps-Déplacer/Copier1[1]', #279 ) ;
#196 = EDGE_LOOP ( 'NONE', ( #78, #267 ) ) ;
#197 = DIRECTION ( 'NONE',  ( 3.819167204710538499E-14, -1.000000000000000000, 0.000000000000000000 ) ) ;
#198 = ORIENTED_EDGE ( 'NONE', *, *, #248, .F. ) ;
#199 = CARTESIAN_POINT ( 'NONE',  ( 7.603951311575199935E-14, -1.499999999999996669, 5.751938437691304529 ) ) ;
#200 = EDGE_CURVE ( 'NONE', #118, #237, #89, .T. ) ;
#201 = STYLED_ITEM ( 'NONE', ( #202 ), #195 ) ;
#202 = PRESENTATION_STYLE_ASSIGNMENT (( #301 ) ) ;
#203 = EDGE_CURVE ( 'NONE', #307, #118, #292, .T. ) ;
#204 = ORIENTED_EDGE ( 'NONE', *, *, #159, .T. ) ;
#205 = CARTESIAN_POINT ( 'NONE',  ( -1.049999999999983835, 1.285879139104720239E-16, 4.500000000000003553 ) ) ;
#206 = AXIS2_PLACEMENT_3D ( 'NONE', #105, #26, #1 ) ;
#207 = ORIENTED_EDGE ( 'NONE', *, *, #192, .F. ) ;
#208 = CIRCLE ( 'NONE', #94, 1.199999999999995737 ) ;
#209 = ORIENTED_EDGE ( 'NONE', *, *, #320, .F. ) ;
#210 = VECTOR ( 'NONE', #154, 1000.000000000000000 ) ;
#211 = VERTEX_POINT ( 'NONE', #276 ) ;
#212 = DIRECTION ( 'NONE',  ( 1.000000000000000000, 0.000000000000000000, -3.304235192336776695E-15 ) ) ;
#213 = DIRECTION ( 'NONE',  ( -3.491481338843133355E-15, 1.224646799147353207E-16, -1.000000000000000000 ) ) ;
#214 = DIRECTION ( 'NONE',  ( -1.000000000000000000, 0.000000000000000000, 3.491481338843133355E-15 ) ) ;
#215 = DIRECTION ( 'NONE',  ( -4.275831445896958607E-31, -1.000000000000000000, -1.224646799147353207E-16 ) ) ;
#216 = CARTESIAN_POINT ( 'NONE',  ( 0.000000000000000000, 0.000000000000000000, 0.000000000000000000 ) ) ;
#217 = FACE_OUTER_BOUND ( 'NONE', #75, .T. ) ;
#218 = CARTESIAN_POINT ( 'NONE',  ( 2.008278571737371941E-14, 1.499999999999995337, 5.751938437691304529 ) ) ;
#219 = EDGE_CURVE ( 'NONE', #118, #307, #8, .T. ) ;
#220 = AXIS2_PLACEMENT_3D ( 'NONE', #140, #240, #290 ) ;
#221 = SURFACE_STYLE_USAGE ( .BOTH. , #83 ) ;
#222 = FACE_OUTER_BOUND ( 'NONE', #172, .T. ) ;
#223 = ORIENTED_EDGE ( 'NONE', *, *, #260, .F. ) ;
#224 = DIRECTION ( 'NONE',  ( -3.491481338843133355E-15, 1.224646799147359124E-16, -1.000000000000000000 ) ) ;
#225 = CIRCLE ( 'NONE', #191, 1.050000000000000044 ) ;
#226 = EDGE_CURVE ( 'NONE', #237, #128, #121, .T. ) ;
#227 = ADVANCED_FACE ( 'NONE', ( #303 ), #246, .T. ) ;
#228 = CARTESIAN_POINT ( 'NONE',  ( 1.836970198721019580E-16, -1.499999999999996669, -1.836970198721032153E-16 ) ) ;
#229 = APPLICATION_PROTOCOL_DEFINITION ( 'draft international standard', 'automotive_design', 1998, #175 ) ;
#230 = UNCERTAINTY_MEASURE_WITH_UNIT (LENGTH_MEASURE( 1.000000000000000082E-05 ), #298, 'distance_accuracy_value', 'NONE');
#231 = ORIENTED_EDGE ( 'NONE', *, *, #336, .F. ) ;
#232 = LINE ( 'NONE', #330, #325 ) ;
#233 = ORIENTED_EDGE ( 'NONE', *, *, #123, .F. ) ;
#234 = ORIENTED_EDGE ( 'NONE', *, *, #203, .F. ) ;
#235 = CARTESIAN_POINT ( 'NONE',  ( 1.326762908760390423E-13, -4.653657836759941941E-15, 38.00000000000000000 ) ) ;
#236 = VECTOR ( 'NONE', #300, 1000.000000000000000 ) ;
#237 = VERTEX_POINT ( 'NONE', #199 ) ;
#238 = FACE_OUTER_BOUND ( 'NONE', #135, .T. ) ;
#239 = CARTESIAN_POINT ( 'NONE',  ( 2.008278571737371941E-14, -7.044092996611283994E-16, 5.751938437691304529 ) ) ;
#240 = DIRECTION ( 'NONE',  ( 3.491481338843133355E-15, -1.224646799147353207E-16, 1.000000000000000000 ) ) ;
#241 = COLOUR_RGB ( '',1.000000000000000000, 1.000000000000000000, 1.000000000000000000 ) ;
#242 = SURFACE_SIDE_STYLE ('',( #88 ) ) ;
#243 = DIRECTION ( 'NONE',  ( 4.275831445896958607E-31, 1.000000000000000000, 1.224646799147353454E-16 ) ) ;
#244 = CARTESIAN_POINT ( 'NONE',  ( 7.585581609587992187E-14, 1.499999999999992228, 37.69999999999999574 ) ) ;
#245 =( GEOMETRIC_REPRESENTATION_CONTEXT ( 3 ) GLOBAL_UNCERTAINTY_ASSIGNED_CONTEXT ( ( #230 ) ) GLOBAL_UNIT_ASSIGNED_CONTEXT ( ( #298, #274, #270 ) ) REPRESENTATION_CONTEXT ( 'NONE', 'WORKASPACE' ) );
#246 = CYLINDRICAL_SURFACE ( 'NONE', #293, 1.499999999999996669 ) ;
#247 = VECTOR ( 'NONE', #11, 999.9999999999998863 ) ;
#248 = EDGE_CURVE ( 'NONE', #126, #118, #39, .T. ) ;
#249 = CARTESIAN_POINT ( 'NONE',  ( 1.318125434942582113E-13, -1.500000000000001332, 37.69999999999999574 ) ) ;
#250 = LINE ( 'NONE', #268, #236 ) ;
#251 = CIRCLE ( 'NONE', #318, 1.499999999999996003 ) ;
#252 = PRODUCT_DEFINITION ( 'UNKNOWN', '', #324, #42 ) ;
#253 = FACE_OUTER_BOUND ( 'NONE', #41, .T. ) ;
#254 = ORIENTED_EDGE ( 'NONE', *, *, #226, .T. ) ;
#255 = DIRECTION ( 'NONE',  ( 0.000000000000000000, -1.000000000000000000, 0.000000000000000000 ) ) ;
#256 = CARTESIAN_POINT ( 'NONE',  ( 1.316288464743861212E-13, -4.616918432785521081E-15, 37.69999999999999574 ) ) ;
#257 = DIRECTION ( 'NONE',  ( 3.491481338843133355E-15, -0.000000000000000000, 1.000000000000000000 ) ) ;
#258 = AXIS2_PLACEMENT_3D ( 'NONE', #327, #149, #174 ) ;
#259 = EDGE_CURVE ( 'NONE', #211, #181, #114, .T. ) ;
#260 = EDGE_CURVE ( 'NONE', #131, #307, #232, .T. ) ;
#261 = CARTESIAN_POINT ( 'NONE',  ( 1.326762908760390423E-13, -4.653657836759941941E-15, 38.00000000000000000 ) ) ;
#262 = DIRECTION ( 'NONE',  ( -3.491481338843133355E-15, 1.224646799147353207E-16, -1.000000000000000000 ) ) ;
#263 = CARTESIAN_POINT ( 'NONE',  ( 1.321525686752125943E-13, 1.199999999999991296, 38.00000000000000000 ) ) ;
#264 = PRODUCT_DEFINITION_SHAPE ( 'NONE', 'NONE',  #252 ) ;
#265 = COLOUR_RGB ( '',1.000000000000000000, 1.000000000000000000, 1.000000000000000000 ) ;
#266 = AXIS2_PLACEMENT_3D ( 'NONE', #52, #161, #164 ) ;
#267 = ORIENTED_EDGE ( 'NONE', *, *, #77, .T. ) ;
#268 = CARTESIAN_POINT ( 'NONE',  ( -1.049999999999984057, 1.285879139104720485E-16, 4.500000000000003553 ) ) ;
#269 = PRODUCT_RELATED_PRODUCT_CATEGORY ( 'part', '', ( #139 ) ) ;
#270 =( NAMED_UNIT ( * ) SI_UNIT ( $, .STERADIAN. ) SOLID_ANGLE_UNIT ( ) );
#271 = CONICAL_SURFACE ( 'NONE', #72, 1.499999999999996669, 0.7853981633974472798 ) ;
#272 = CIRCLE ( 'NONE', #53, 1.050000000000000044 ) ;
#273 = EDGE_LOOP ( 'NONE', ( #275, #177, #101, #254 ) ) ;
#274 =( NAMED_UNIT ( * ) PLANE_ANGLE_UNIT ( ) SI_UNIT ( $, .RADIAN. ) );
#275 = ORIENTED_EDGE ( 'NONE', *, *, #143, .F. ) ;
#276 = CARTESIAN_POINT ( 'NONE',  ( 1.050000000000015143, 0.000000000000000000, 4.499999999999996447 ) ) ;
#277 = CARTESIAN_POINT ( 'NONE',  ( -1.050000000000000044, 1.285879139104730593E-16, 3.666055405785290023E-15 ) ) ;
#278 = DIRECTION ( 'NONE',  ( 1.000000000000000000, 0.000000000000000000, -3.491481338843134144E-15 ) ) ;
#279 = CLOSED_SHELL ( 'NONE', ( #169, #134, #227, #312, #82, #285, #40, #284 ) ) ;
#280 = VECTOR ( 'NONE', #183, 1000.000000000000000 ) ;
#281 = CARTESIAN_POINT ( 'NONE',  ( 6.413747168845443822E-32, 1.050000000000000044, 1.836970198721031290E-17 ) ) ;
#282 = FACE_OUTER_BOUND ( 'NONE', #196, .T. ) ;
#283 = CARTESIAN_POINT ( 'NONE',  ( 1.789722587108390818E-14, -1.050000000000000711, 4.500000000000000000 ) ) ;
#284 = ADVANCED_FACE ( 'NONE', ( #46 ), #58, .T. ) ;
#285 = ADVANCED_FACE ( 'NONE', ( #238 ), #341, .T. ) ;
#286 = AXIS2_PLACEMENT_3D ( 'NONE', #235, #138, #215 ) ;
#287 = PLANE ( 'NONE',  #286 ) ;
#288 = CARTESIAN_POINT ( 'NONE',  ( 1.571166602479410010E-14, -5.510910596163088569E-16, 4.500000000000000000 ) ) ;
#289 = ORIENTED_EDGE ( 'NONE', *, *, #65, .F. ) ;
#290 = DIRECTION ( 'NONE',  ( 0.000000000000000000, -1.000000000000000000, 0.000000000000000000 ) ) ;
#291 =( LENGTH_UNIT ( ) NAMED_UNIT ( * ) SI_UNIT ( .MILLI., .METRE. ) );
#292 = CIRCLE ( 'NONE', #173, 1.499999999999996669 ) ;
#293 = AXIS2_PLACEMENT_3D ( 'NONE', #178, #125, #243 ) ;
#294 = DIRECTION ( 'NONE',  ( 0.000000000000000000, 0.000000000000000000, 1.000000000000000000 ) ) ;
#295 = EDGE_CURVE ( 'NONE', #59, #66, #272, .T. ) ;
#296 = VECTOR ( 'NONE', #309, 1000.000000000000000 ) ;
#297 = ORIENTED_EDGE ( 'NONE', *, *, #219, .F. ) ;
#298 =( LENGTH_UNIT ( ) NAMED_UNIT ( * ) SI_UNIT ( .MILLI., .METRE. ) );
#299 = ORIENTED_EDGE ( 'NONE', *, *, #248, .T. ) ;
#300 = DIRECTION ( 'NONE',  ( 3.491481338843133355E-15, -0.000000000000000000, 1.000000000000000000 ) ) ;
#301 = SURFACE_STYLE_USAGE ( .BOTH. , #62 ) ;
#302 = ORIENTED_EDGE ( 'NONE', *, *, #320, .T. ) ;
#303 = FACE_OUTER_BOUND ( 'NONE', #311, .T. ) ;
#304 = MANIFOLD_SOLID_BREP ( 'Corps-Déplacer/Copier1[2]', #79 ) ;
#305 = ORIENTED_EDGE ( 'NONE', *, *, #77, .F. ) ;
#306 = DIRECTION ( 'NONE',  ( -3.491481338843133355E-15, 1.224646799147359124E-16, -1.000000000000000000 ) ) ;
#307 = VERTEX_POINT ( 'NONE', #244 ) ;
#308 = CONICAL_SURFACE ( 'NONE', #28, 1.050000000000000044, 0.3450620389298188484 ) ;
#309 = DIRECTION ( 'NONE',  ( 3.491481338843133355E-15, -0.000000000000000000, 1.000000000000000000 ) ) ;
#310 = AXIS2_PLACEMENT_3D ( 'NONE', #216, #213, #185 ) ;
#311 = EDGE_LOOP ( 'NONE', ( #43, #68, #179, #207 ) ) ;
#312 = ADVANCED_FACE ( 'NONE', ( #217 ), #322, .T. ) ;
#313 = LINE ( 'NONE', #49, #280 ) ;
#314 = FACE_OUTER_BOUND ( 'NONE', #273, .T. ) ;
#315 = DIRECTION ( 'NONE',  ( 0.000000000000000000, 1.000000000000000000, 0.000000000000000000 ) ) ;
#316 = FACE_OUTER_BOUND ( 'NONE', #158, .T. ) ;
#317 =( NAMED_UNIT ( * ) SI_UNIT ( $, .STERADIAN. ) SOLID_ANGLE_UNIT ( ) );
#318 = AXIS2_PLACEMENT_3D ( 'NONE', #239, #337, #315 ) ;
#319 = AXIS2_PLACEMENT_3D ( 'NONE', #256, #163, #19 ) ;
#320 = EDGE_CURVE ( 'NONE', #326, #5, #225, .T. ) ;
#321 = ADVANCED_FACE ( 'NONE', ( #282 ), #47, .F. ) ;
#322 = PLANE ( 'NONE',  #338 ) ;
#323 = FILL_AREA_STYLE ('',( #60 ) ) ;
#324 = PRODUCT_DEFINITION_FORMATION_WITH_SPECIFIED_SOURCE ( 'ANY', '', #139, .NOT_KNOWN. ) ;
#325 = VECTOR ( 'NONE', #98, 999.9999999999998863 ) ;
#326 = VERTEX_POINT ( 'NONE', #25 ) ;
#327 = CARTESIAN_POINT ( 'NONE',  ( 2.008278571737371941E-14, -7.044092996611283994E-16, 5.751938437691304529 ) ) ;
#328 = ORIENTED_EDGE ( 'NONE', *, *, #143, .T. ) ;
#329 = CARTESIAN_POINT ( 'NONE',  ( 1.571166602479410010E-14, 0.000000000000000000, 4.500000000000000000 ) ) ;
#330 = CARTESIAN_POINT ( 'NONE',  ( 1.316288464743861212E-13, 1.499999999999992228, 37.69999999999999574 ) ) ;
#331 =( NAMED_UNIT ( * ) SI_UNIT ( $, .STERADIAN. ) SOLID_ANGLE_UNIT ( ) );
#332 = ORIENTED_EDGE ( 'NONE', *, *, #259, .F. ) ;
#333 = PRODUCT_CONTEXT ( 'NONE', #175, 'mechanical' ) ;
#334 =( NAMED_UNIT ( * ) PLANE_ANGLE_UNIT ( ) SI_UNIT ( $, .RADIAN. ) );
#335 = ORIENTED_EDGE ( 'NONE', *, *, #226, .F. ) ;
#336 = EDGE_CURVE ( 'NONE', #66, #237, #313, .T. ) ;
#337 = DIRECTION ( 'NONE',  ( -3.491481338843133355E-15, 1.224646799147353207E-16, -1.000000000000000000 ) ) ;
#338 = AXIS2_PLACEMENT_3D ( 'NONE', #22, #165, #103 ) ;
#339 = PRESENTATION_LAYER_ASSIGNMENT (  '', '', ( #201 ) ) ;
#340 = ORIENTED_EDGE ( 'NONE', *, *, #260, .T. ) ;
#341 = CYLINDRICAL_SURFACE ( 'NONE', #310, 1.499999999999996669 ) ;
#342 = UNCERTAINTY_MEASURE_WITH_UNIT (LENGTH_MEASURE( 1.000000000000000082E-05 ), #27, 'distance_accuracy_value', 'NONE');
#343 = CYLINDRICAL_SURFACE ( 'NONE', #266, 1.049999999999999822 ) ;
ENDSEC;
END-ISO-10303-21;
