ISO-10303-21;
HEADER;
FILE_DESCRIPTION (( 'STEP AP214' ),
    '1' );
FILE_NAME ('56995.step',
    '2024-04-04T09:56:02',
    ( '' ),
    ( '' ),
    'SwSTEP 2.0',
    'SolidWorks 2022',
    '' );
FILE_SCHEMA (( 'AUTOMOTIVE_DESIGN' ));
ENDSEC;

DATA;
#1 = DIRECTION ( 'NONE',  ( 0.000000000000000000, 0.000000000000000000, 1.000000000000000000 ) ) ;
#2 = ORIENTED_EDGE ( 'NONE', *, *, #132, .T. ) ;
#3 = EDGE_CURVE ( 'NONE', #26, #20, #284, .T. ) ;
#4 = DIRECTION ( 'NONE',  ( -3.491481338843133355E-15, 1.224646799147353207E-16, -1.000000000000000000 ) ) ;
#5 = EDGE_CURVE ( 'NONE', #103, #256, #246, .T. ) ;
#6 = APPLICATION_PROTOCOL_DEFINITION ( 'draft international standard', 'automotive_design', 1998, #40 ) ;
#7 = DIRECTION ( 'NONE',  ( 0.000000000000000000, 1.000000000000000000, 0.000000000000000000 ) ) ;
#8 = AXIS2_PLACEMENT_3D ( 'NONE', #199, #178, #303 ) ;
#9 = CARTESIAN_POINT ( 'NONE',  ( 0.7500000000000122125, 0.000000000000000000, 3.599999999999997424 ) ) ;
#10 = FACE_OUTER_BOUND ( 'NONE', #232, .T. ) ;
#11 =( NAMED_UNIT ( * ) SI_UNIT ( $, .STERADIAN. ) SOLID_ANGLE_UNIT ( ) );
#12 = CARTESIAN_POINT ( 'NONE',  ( 0.7500000000000121014, 0.000000000000000000, 3.599999999999997424 ) ) ;
#13 = DIRECTION ( 'NONE',  ( -1.000000000000000000, 0.000000000000000000, 3.491481338843133355E-15 ) ) ;
#14 = FACE_OUTER_BOUND ( 'NONE', #296, .T. ) ;
#15 = DIRECTION ( 'NONE',  ( 0.000000000000000000, 1.000000000000000000, 0.000000000000000000 ) ) ;
#16 = CARTESIAN_POINT ( 'NONE',  ( 1.316288464743861212E-13, 1.499999999999992228, 37.69999999999999574 ) ) ;
#17 = AXIS2_PLACEMENT_3D ( 'NONE', #307, #44, #13 ) ;
#18 = EDGE_LOOP ( 'NONE', ( #184, #338, #186, #30 ) ) ;
#19 = UNCERTAINTY_MEASURE_WITH_UNIT (LENGTH_MEASURE( 1.000000000000000082E-05 ), #23, 'distance_accuracy_value', 'NONE');
#20 = VERTEX_POINT ( 'NONE', #12 ) ;
#21 = APPLICATION_CONTEXT ( 'automotive_design' ) ;
#22 = DIRECTION ( 'NONE',  ( 1.000000000000000000, 0.000000000000000000, -3.469446951953615767E-15 ) ) ;
#23 =( LENGTH_UNIT ( ) NAMED_UNIT ( * ) SI_UNIT ( .MILLI., .METRE. ) );
#24 = ORIENTED_EDGE ( 'NONE', *, *, #121, .T. ) ;
#25 = DIRECTION ( 'NONE',  ( -3.491481338843133355E-15, 1.224646799147353207E-16, -1.000000000000000000 ) ) ;
#26 = VERTEX_POINT ( 'NONE', #64 ) ;
#27 = AXIS2_PLACEMENT_3D ( 'NONE', #251, #227, #15 ) ;
#28 =( NAMED_UNIT ( * ) SI_UNIT ( $, .STERADIAN. ) SOLID_ANGLE_UNIT ( ) );
#29 = DIRECTION ( 'NONE',  ( 3.491481338843133355E-15, -0.000000000000000000, 1.000000000000000000 ) ) ;
#30 = ORIENTED_EDGE ( 'NONE', *, *, #258, .F. ) ;
#31 = CIRCLE ( 'NONE', #309, 1.499999999999996669 ) ;
#32 = CYLINDRICAL_SURFACE ( 'NONE', #219, 1.499999999999996669 ) ;
#33 = ADVANCED_FACE ( 'NONE', ( #100 ), #149, .T. ) ;
#34 = CARTESIAN_POINT ( 'NONE',  ( 0.000000000000000000, 0.000000000000000000, 0.000000000000000000 ) ) ;
#35 = FACE_OUTER_BOUND ( 'NONE', #254, .T. ) ;
#36 = ADVANCED_FACE ( 'NONE', ( #304 ), #93, .F. ) ;
#37 = AXIS2_PLACEMENT_3D ( 'NONE', #204, #224, #248 ) ;
#38 = VECTOR ( 'NONE', #119, 1000.000000000000000 ) ;
#39 = CARTESIAN_POINT ( 'NONE',  ( 1.326762908760390423E-13, -4.653657836759941941E-15, 38.00000000000000000 ) ) ;
#40 = APPLICATION_CONTEXT ( 'automotive_design' ) ;
#41 = DIRECTION ( 'NONE',  ( 0.000000000000000000, -1.000000000000000000, 0.000000000000000000 ) ) ;
#42 = ADVANCED_FACE ( 'NONE', ( #174 ), #298, .T. ) ;
#43 = DIRECTION ( 'NONE',  ( -3.491481338843133355E-15, 1.224646799147353207E-16, -1.000000000000000000 ) ) ;
#44 = DIRECTION ( 'NONE',  ( -3.491481338843133355E-15, 0.000000000000000000, -1.000000000000000000 ) ) ;
#45 = CLOSED_SHELL ( 'NONE', ( #111, #272, #157, #33, #311, #321, #88, #42 ) ) ;
#46 = VERTEX_POINT ( 'NONE', #123 ) ;
#47 = DIRECTION ( 'NONE',  ( 0.000000000000000000, -1.000000000000000000, 0.000000000000000000 ) ) ;
#48 = CARTESIAN_POINT ( 'NONE',  ( 1.256933281983528008E-14, 0.000000000000000000, 3.600000000000000089 ) ) ;
#49 = STYLED_ITEM ( 'NONE', ( #182 ), #173 ) ;
#50 = APPLICATION_PROTOCOL_DEFINITION ( 'draft international standard', 'automotive_design', 1998, #21 ) ;
#51 = ORIENTED_EDGE ( 'NONE', *, *, #286, .F. ) ;
#52 = CARTESIAN_POINT ( 'NONE',  ( 7.574168939092707057E-14, 1.499999999999992228, 37.69999999999999574 ) ) ;
#53 = ORIENTED_EDGE ( 'NONE', *, *, #5, .T. ) ;
#54 = CARTESIAN_POINT ( 'NONE',  ( 7.592538641079913543E-14, -1.499999999999996669, 5.686564062818848519 ) ) ;
#55 = UNCERTAINTY_MEASURE_WITH_UNIT (LENGTH_MEASURE( 1.000000000000000082E-05 ), #337, 'distance_accuracy_value', 'NONE');
#56 = CIRCLE ( 'NONE', #241, 1.199999999999988853 ) ;
#57 = ORIENTED_EDGE ( 'NONE', *, *, #141, .F. ) ;
#58 = EDGE_CURVE ( 'NONE', #101, #262, #274, .T. ) ;
#59 = AXIS2_PLACEMENT_3D ( 'NONE', #146, #196, #7 ) ;
#60 = PLANE ( 'NONE',  #99 ) ;
#61 = PRESENTATION_LAYER_ASSIGNMENT (  '', '', ( #217 ) ) ;
#62 = EDGE_CURVE ( 'NONE', #101, #78, #56, .T. ) ;
#63 = MECHANICAL_DESIGN_GEOMETRIC_PRESENTATION_REPRESENTATION (  '', ( #49 ), #170 ) ;
#64 = CARTESIAN_POINT ( 'NONE',  ( -0.7499999999999868994, 9.184850993605144740E-17, 3.600000000000002309 ) ) ;
#65 = ADVANCED_FACE ( 'NONE', ( #147 ), #69, .F. ) ;
#66 = FILL_AREA_STYLE ('',( #122 ) ) ;
#67 = CARTESIAN_POINT ( 'NONE',  ( 1.256933281983528008E-14, 0.7499999999999994449, 3.600000000000000089 ) ) ;
#68 = DIRECTION ( 'NONE',  ( 1.000000000000000000, 0.000000000000000000, -3.491481338843133355E-15 ) ) ;
#69 = PLANE ( 'NONE',  #17 ) ;
#70 = AXIS2_PLACEMENT_3D ( 'NONE', #73, #176, #128 ) ;
#71 =( NAMED_UNIT ( * ) PLANE_ANGLE_UNIT ( ) SI_UNIT ( $, .RADIAN. ) );
#72 = CARTESIAN_POINT ( 'NONE',  ( 1.985453230746800102E-14, -6.964032477677472235E-16, 5.686564062818848519 ) ) ;
#73 = CARTESIAN_POINT ( 'NONE',  ( 1.256933281983528008E-14, 0.000000000000000000, 3.600000000000000089 ) ) ;
#74 = PRESENTATION_STYLE_ASSIGNMENT (( #250 ) ) ;
#75 = AXIS2_PLACEMENT_3D ( 'NONE', #302, #148, #201 ) ;
#76 = ORIENTED_EDGE ( 'NONE', *, *, #3, .T. ) ;
#77 = CARTESIAN_POINT ( 'NONE',  ( 1.985453230746800102E-14, 1.499999999999995337, 5.686564062818848519 ) ) ;
#78 = VERTEX_POINT ( 'NONE', #244 ) ;
#79 = AXIS2_PLACEMENT_3D ( 'NONE', #156, #327, #226 ) ;
#80 = DIRECTION ( 'NONE',  ( -3.491481338843133355E-15, 1.224646799147359124E-16, -1.000000000000000000 ) ) ;
#81 = MECHANICAL_DESIGN_GEOMETRIC_PRESENTATION_REPRESENTATION (  '', ( #322 ), #91 ) ;
#82 = VERTEX_POINT ( 'NONE', #306 ) ;
#83 = DIRECTION ( 'NONE',  ( -4.275831445896958607E-31, -1.000000000000000000, -1.224646799147353207E-16 ) ) ;
#84 = DIRECTION ( 'NONE',  ( -2.382254525458689465E-15, -0.7071067811865549002, -0.7071067811865402453 ) ) ;
#85 = AXIS2_PLACEMENT_3D ( 'NONE', #67, #278, #301 ) ;
#86 = SHAPE_DEFINITION_REPRESENTATION ( #335, #173 ) ;
#87 = SURFACE_STYLE_USAGE ( .BOTH. , #265 ) ;
#88 = ADVANCED_FACE ( 'NONE', ( #125 ), #188, .T. ) ;
#89 = DIRECTION ( 'NONE',  ( 0.000000000000000000, 1.000000000000000000, 0.000000000000000000 ) ) ;
#90 = VECTOR ( 'NONE', #331, 1000.000000000000114 ) ;
#91 =( GEOMETRIC_REPRESENTATION_CONTEXT ( 3 ) GLOBAL_UNCERTAINTY_ASSIGNED_CONTEXT ( ( #342 ) ) GLOBAL_UNIT_ASSIGNED_CONTEXT ( ( #181, #277, #280 ) ) REPRESENTATION_CONTEXT ( 'NONE', 'WORKASPACE' ) );
#92 = DIRECTION ( 'NONE',  ( 3.491481338843133355E-15, -0.000000000000000000, 1.000000000000000000 ) ) ;
#93 = PLANE ( 'NONE',  #37 ) ;
#94 = AXIS2_PLACEMENT_3D ( 'NONE', #212, #29, #287 ) ;
#95 = DIRECTION ( 'NONE',  ( 3.819167204710538499E-14, -1.000000000000000000, 0.000000000000000000 ) ) ;
#96 = ADVANCED_FACE ( 'NONE', ( #225 ), #273, .T. ) ;
#97 = VECTOR ( 'NONE', #223, 1000.000000000000000 ) ;
#98 = UNCERTAINTY_MEASURE_WITH_UNIT (LENGTH_MEASURE( 1.000000000000000082E-05 ), #126, 'distance_accuracy_value', 'NONE');
#99 = AXIS2_PLACEMENT_3D ( 'NONE', #266, #300, #83 ) ;
#100 = FACE_OUTER_BOUND ( 'NONE', #133, .T. ) ;
#101 = VERTEX_POINT ( 'NONE', #281 ) ;
#102 = FILL_AREA_STYLE_COLOUR ( '', #165 ) ;
#103 = VERTEX_POINT ( 'NONE', #276 ) ;
#104 = CARTESIAN_POINT ( 'NONE',  ( 1.256933281983528008E-14, -0.7500000000000003331, 3.600000000000000089 ) ) ;
#105 = CONICAL_SURFACE ( 'NONE', #27, 1.499999999999996669, 0.7853981633974588261 ) ;
#106 = EDGE_CURVE ( 'NONE', #218, #264, #340, .T. ) ;
#107 = ORIENTED_EDGE ( 'NONE', *, *, #286, .T. ) ;
#108 = ORIENTED_EDGE ( 'NONE', *, *, #269, .T. ) ;
#109 = FILL_AREA_STYLE ('',( #102 ) ) ;
#110 = VERTEX_POINT ( 'NONE', #172 ) ;
#111 = ADVANCED_FACE ( 'NONE', ( #10 ), #105, .T. ) ;
#112 = EDGE_LOOP ( 'NONE', ( #183, #135, #229, #159 ) ) ;
#113 = MECHANICAL_DESIGN_GEOMETRIC_PRESENTATION_REPRESENTATION (  '', ( #217 ), #153 ) ;
#114 = DIRECTION ( 'NONE',  ( 4.275831445896958607E-31, 1.000000000000000000, 1.224646799147353454E-16 ) ) ;
#115 = FILL_AREA_STYLE_COLOUR ( '', #197 ) ;
#116 = CIRCLE ( 'NONE', #171, 1.499999999999996669 ) ;
#117 = LINE ( 'NONE', #144, #145 ) ;
#118 = CARTESIAN_POINT ( 'NONE',  ( -0.7499999999999871214, 9.184850993605145972E-17, 3.600000000000002309 ) ) ;
#119 = DIRECTION ( 'NONE',  ( 3.491481338843133355E-15, -0.000000000000000000, 1.000000000000000000 ) ) ;
#120 = CARTESIAN_POINT ( 'NONE',  ( 1.836970198721019580E-16, -1.499999999999996669, -1.836970198721032153E-16 ) ) ;
#121 = EDGE_CURVE ( 'NONE', #110, #264, #127, .T. ) ;
#122 = FILL_AREA_STYLE_COLOUR ( '', #290 ) ;
#123 = CARTESIAN_POINT ( 'NONE',  ( 0.7499999999999998890, 0.000000000000000000, -2.618611004132349622E-15 ) ) ;
#124 = AXIS2_PLACEMENT_3D ( 'NONE', #34, #1, #143 ) ;
#125 = FACE_OUTER_BOUND ( 'NONE', #318, .T. ) ;
#126 =( LENGTH_UNIT ( ) NAMED_UNIT ( * ) SI_UNIT ( .MILLI., .METRE. ) );
#127 = LINE ( 'NONE', #120, #97 ) ;
#128 = DIRECTION ( 'NONE',  ( 1.000000000000000000, 0.000000000000000000, -3.469446951953615767E-15 ) ) ;
#129 = VECTOR ( 'NONE', #84, 1000.000000000000114 ) ;
#130 = ORIENTED_EDGE ( 'NONE', *, *, #131, .F. ) ;
#131 = EDGE_CURVE ( 'NONE', #262, #110, #116, .T. ) ;
#132 = EDGE_CURVE ( 'NONE', #78, #101, #228, .T. ) ;
#133 = EDGE_LOOP ( 'NONE', ( #53, #193 ) ) ;
#134 = AXIS2_PLACEMENT_3D ( 'NONE', #202, #177, #47 ) ;
#135 = ORIENTED_EDGE ( 'NONE', *, *, #336, .T. ) ;
#136 = SURFACE_SIDE_STYLE ('',( #310 ) ) ;
#137 = ORIENTED_EDGE ( 'NONE', *, *, #169, .T. ) ;
#138 = PRODUCT ( '56995', '56995', '', ( #317 ) ) ;
#139 = ORIENTED_EDGE ( 'NONE', *, *, #163, .T. ) ;
#140 = AXIS2_PLACEMENT_3D ( 'NONE', #257, #25, #211 ) ;
#141 = EDGE_CURVE ( 'NONE', #262, #218, #162, .T. ) ;
#142 = AXIS2_PLACEMENT_3D ( 'NONE', #239, #150, #68 ) ;
#143 = DIRECTION ( 'NONE',  ( 1.000000000000000000, 0.000000000000000000, 0.000000000000000000 ) ) ;
#144 = CARTESIAN_POINT ( 'NONE',  ( 1.266118132977133144E-14, 0.7499999999999994449, 3.600000000000000089 ) ) ;
#145 = VECTOR ( 'NONE', #240, 1000.000000000000114 ) ;
#146 = CARTESIAN_POINT ( 'NONE',  ( 1.985453230746800102E-14, -6.964032477677472235E-16, 5.686564062818848519 ) ) ;
#147 = FACE_OUTER_BOUND ( 'NONE', #236, .T. ) ;
#148 = DIRECTION ( 'NONE',  ( 3.491481338843133355E-15, -1.224646799147353207E-16, 1.000000000000000000 ) ) ;
#149 = PLANE ( 'NONE',  #85 ) ;
#150 = DIRECTION ( 'NONE',  ( 3.491481338843133355E-15, -0.000000000000000000, 1.000000000000000000 ) ) ;
#151 = CARTESIAN_POINT ( 'NONE',  ( 1.256933281983528008E-14, 0.000000000000000000, 3.600000000000000089 ) ) ;
#152 = DIRECTION ( 'NONE',  ( 1.000000000000000000, 0.000000000000000000, -3.469446951953616950E-15 ) ) ;
#153 =( GEOMETRIC_REPRESENTATION_CONTEXT ( 3 ) GLOBAL_UNCERTAINTY_ASSIGNED_CONTEXT ( ( #55 ) ) GLOBAL_UNIT_ASSIGNED_CONTEXT ( ( #337, #332, #158 ) ) REPRESENTATION_CONTEXT ( 'NONE', 'WORKASPACE' ) );
#154 = PRESENTATION_LAYER_ASSIGNMENT (  '', '', ( #49 ) ) ;
#155 = DIRECTION ( 'NONE',  ( 3.491481338843133355E-15, -1.224646799147353207E-16, 1.000000000000000000 ) ) ;
#156 = CARTESIAN_POINT ( 'NONE',  ( 1.256933281983528008E-14, -4.408728476930471151E-16, 3.600000000000000089 ) ) ;
#157 = ADVANCED_FACE ( 'NONE', ( #233 ), #341, .T. ) ;
#158 =( NAMED_UNIT ( * ) SI_UNIT ( $, .STERADIAN. ) SOLID_ANGLE_UNIT ( ) );
#159 = ORIENTED_EDGE ( 'NONE', *, *, #3, .F. ) ;
#160 = ORIENTED_EDGE ( 'NONE', *, *, #62, .T. ) ;
#161 = CIRCLE ( 'NONE', #94, 0.7499999999999998890 ) ;
#162 = LINE ( 'NONE', #263, #323 ) ;
#163 = EDGE_CURVE ( 'NONE', #78, #110, #187, .T. ) ;
#164 = DIRECTION ( 'NONE',  ( 3.285674118869261816E-15, -0.3382550599108820610, 0.9410544694355824635 ) ) ;
#165 = COLOUR_RGB ( '',1.000000000000000000, 1.000000000000000000, 1.000000000000000000 ) ;
#166 = ORIENTED_EDGE ( 'NONE', *, *, #192, .F. ) ;
#167 = PRESENTATION_STYLE_ASSIGNMENT (( #87 ) ) ;
#168 = DIRECTION ( 'NONE',  ( 3.491481338843133355E-15, -0.000000000000000000, 1.000000000000000000 ) ) ;
#169 = EDGE_CURVE ( 'NONE', #256, #218, #117, .T. ) ;
#170 =( GEOMETRIC_REPRESENTATION_CONTEXT ( 3 ) GLOBAL_UNCERTAINTY_ASSIGNED_CONTEXT ( ( #19 ) ) GLOBAL_UNIT_ASSIGNED_CONTEXT ( ( #23, #213, #28 ) ) REPRESENTATION_CONTEXT ( 'NONE', 'WORKASPACE' ) );
#171 = AXIS2_PLACEMENT_3D ( 'NONE', #325, #198, #95 ) ;
#172 = CARTESIAN_POINT ( 'NONE',  ( 7.592538641079908494E-14, -1.500000000000001332, 37.69999999999999574 ) ) ;
#173 = ADVANCED_BREP_SHAPE_REPRESENTATION ( '56995', ( #279, #175, #124 ), #293 ) ;
#174 = FACE_OUTER_BOUND ( 'NONE', #18, .T. ) ;
#175 = MANIFOLD_SOLID_BREP ( 'Corps-Déplacer/Copier1[2]', #275 ) ;
#176 = DIRECTION ( 'NONE',  ( 3.491481338843133355E-15, -0.000000000000000000, 1.000000000000000000 ) ) ;
#177 = DIRECTION ( 'NONE',  ( 3.491481338843133355E-15, -1.224646799147353207E-16, 1.000000000000000000 ) ) ;
#178 = DIRECTION ( 'NONE',  ( -3.491481338843133355E-15, 1.224646799147353207E-16, -1.000000000000000000 ) ) ;
#179 = AXIS2_PLACEMENT_3D ( 'NONE', #48, #185, #22 ) ;
#180 = PRODUCT_DEFINITION ( 'UNKNOWN', '', #253, #261 ) ;
#181 =( LENGTH_UNIT ( ) NAMED_UNIT ( * ) SI_UNIT ( .MILLI., .METRE. ) );
#182 = PRESENTATION_STYLE_ASSIGNMENT (( #209 ) ) ;
#183 = ORIENTED_EDGE ( 'NONE', *, *, #269, .F. ) ;
#184 = ORIENTED_EDGE ( 'NONE', *, *, #163, .F. ) ;
#185 = DIRECTION ( 'NONE',  ( 3.491481338843133355E-15, -0.000000000000000000, 1.000000000000000000 ) ) ;
#186 = ORIENTED_EDGE ( 'NONE', *, *, #58, .T. ) ;
#187 = LINE ( 'NONE', #292, #129 ) ;
#188 = CONICAL_SURFACE ( 'NONE', #79, 0.7499999999999998890, 0.3450620389298190704 ) ;
#189 = ORIENTED_EDGE ( 'NONE', *, *, #169, .F. ) ;
#190 = CIRCLE ( 'NONE', #271, 0.7499999999999998890 ) ;
#191 = DIRECTION ( 'NONE',  ( -3.730349362740525976E-14, -1.000000000000000000, 0.000000000000000000 ) ) ;
#192 = EDGE_CURVE ( 'NONE', #103, #264, #237, .T. ) ;
#193 = ORIENTED_EDGE ( 'NONE', *, *, #330, .T. ) ;
#194 = PRODUCT_RELATED_PRODUCT_CATEGORY ( 'part', '', ( #138 ) ) ;
#195 = AXIS2_PLACEMENT_3D ( 'NONE', #72, #43, #89 ) ;
#196 = DIRECTION ( 'NONE',  ( -3.491481338843133355E-15, 1.224646799147353207E-16, -1.000000000000000000 ) ) ;
#197 = COLOUR_RGB ( '',1.000000000000000000, 1.000000000000000000, 1.000000000000000000 ) ;
#198 = DIRECTION ( 'NONE',  ( -3.491481338843133355E-15, 1.224646799147359124E-16, -1.000000000000000000 ) ) ;
#199 = CARTESIAN_POINT ( 'NONE',  ( 1.256933281983528008E-14, -4.408728476930471151E-16, 3.600000000000000089 ) ) ;
#200 = CARTESIAN_POINT ( 'NONE',  ( 1.256933281983528008E-14, 0.000000000000000000, 3.600000000000000089 ) ) ;
#201 = DIRECTION ( 'NONE',  ( 0.000000000000000000, -1.000000000000000000, 0.000000000000000000 ) ) ;
#202 = CARTESIAN_POINT ( 'NONE',  ( 1.326762908760390423E-13, -4.653657836759941941E-15, 38.00000000000000000 ) ) ;
#203 = AXIS2_PLACEMENT_3D ( 'NONE', #200, #92, #152 ) ;
#204 = CARTESIAN_POINT ( 'NONE',  ( 2.137915722948480453E-32, 0.7499999999999998890, 6.123233995736769426E-18 ) ) ;
#205 = PRESENTATION_LAYER_ASSIGNMENT (  '', '', ( #322 ) ) ;
#206 = VECTOR ( 'NONE', #247, 1000.000000000000000 ) ;
#207 = ORIENTED_EDGE ( 'NONE', *, *, #106, .F. ) ;
#208 = EDGE_LOOP ( 'NONE', ( #333, #108, #51, #234 ) ) ;
#209 = SURFACE_STYLE_USAGE ( .BOTH. , #136 ) ;
#210 = ORIENTED_EDGE ( 'NONE', *, *, #141, .T. ) ;
#211 = DIRECTION ( 'NONE',  ( 4.275831445896958607E-31, 1.000000000000000000, 1.224646799147353454E-16 ) ) ;
#212 = CARTESIAN_POINT ( 'NONE',  ( 0.000000000000000000, 0.000000000000000000, 0.000000000000000000 ) ) ;
#213 =( NAMED_UNIT ( * ) PLANE_ANGLE_UNIT ( ) SI_UNIT ( $, .RADIAN. ) );
#214 = ORIENTED_EDGE ( 'NONE', *, *, #305, .F. ) ;
#215 = DIRECTION ( 'NONE',  ( -3.491481338843133355E-15, 1.224646799147353207E-16, -1.000000000000000000 ) ) ;
#216 = FACE_OUTER_BOUND ( 'NONE', #208, .T. ) ;
#217 = STYLED_ITEM ( 'NONE', ( #167 ), #175 ) ;
#218 = VERTEX_POINT ( 'NONE', #77 ) ;
#219 = AXIS2_PLACEMENT_3D ( 'NONE', #238, #4, #114 ) ;
#220 = CARTESIAN_POINT ( 'NONE',  ( 1.256933281983528008E-14, -4.408728476930471151E-16, 3.600000000000000089 ) ) ;
#221 = CIRCLE ( 'NONE', #299, 0.7499999999999994449 ) ;
#222 = FACE_OUTER_BOUND ( 'NONE', #314, .T. ) ;
#223 = DIRECTION ( 'NONE',  ( -3.491481338843133355E-15, 1.224646799147353207E-16, -1.000000000000000000 ) ) ;
#224 = DIRECTION ( 'NONE',  ( 3.491481338843133355E-15, -0.000000000000000000, 1.000000000000000000 ) ) ;
#225 = FACE_OUTER_BOUND ( 'NONE', #112, .T. ) ;
#226 = DIRECTION ( 'NONE',  ( 0.000000000000000000, -1.000000000000000000, 0.000000000000000000 ) ) ;
#227 = DIRECTION ( 'NONE',  ( -3.491481338843133355E-15, 1.224646799147359124E-16, -1.000000000000000000 ) ) ;
#228 = CIRCLE ( 'NONE', #134, 1.199999999999988853 ) ;
#229 = ORIENTED_EDGE ( 'NONE', *, *, #316, .T. ) ;
#230 = ORIENTED_EDGE ( 'NONE', *, *, #192, .T. ) ;
#231 = ORIENTED_EDGE ( 'NONE', *, *, #305, .T. ) ;
#232 = EDGE_LOOP ( 'NONE', ( #288, #139, #130, #259 ) ) ;
#233 = FACE_OUTER_BOUND ( 'NONE', #343, .T. ) ;
#234 = ORIENTED_EDGE ( 'NONE', *, *, #316, .F. ) ;
#235 = CARTESIAN_POINT ( 'NONE',  ( 1.634970532855571759E-14, 0.7499999999999994449, 3.600000000000000089 ) ) ;
#236 = EDGE_LOOP ( 'NONE', ( #107, #76 ) ) ;
#237 = LINE ( 'NONE', #104, #260 ) ;
#238 = CARTESIAN_POINT ( 'NONE',  ( 0.000000000000000000, 0.000000000000000000, 0.000000000000000000 ) ) ;
#239 = CARTESIAN_POINT ( 'NONE',  ( 0.000000000000000000, 0.000000000000000000, 0.000000000000000000 ) ) ;
#240 = DIRECTION ( 'NONE',  ( 3.327098416510788004E-15, 0.3382550599108818390, 0.9410544694355825746 ) ) ;
#241 = AXIS2_PLACEMENT_3D ( 'NONE', #39, #155, #41 ) ;
#242 = LINE ( 'NONE', #9, #38 ) ;
#243 = DIRECTION ( 'NONE',  ( 0.000000000000000000, 1.000000000000000000, 0.000000000000000000 ) ) ;
#244 = CARTESIAN_POINT ( 'NONE',  ( 1.323178959930974906E-13, -1.199999999999993294, 38.00000000000000000 ) ) ;
#245 = ADVANCED_FACE ( 'NONE', ( #216 ), #283, .T. ) ;
#246 = CIRCLE ( 'NONE', #8, 0.7499999999999998890 ) ;
#247 = DIRECTION ( 'NONE',  ( 3.491481338843133355E-15, -0.000000000000000000, 1.000000000000000000 ) ) ;
#248 = DIRECTION ( 'NONE',  ( 1.000000000000000000, 0.000000000000000000, -3.491481338843133355E-15 ) ) ;
#249 = CARTESIAN_POINT ( 'NONE',  ( 1.316288464743861212E-13, -4.616918432785521081E-15, 37.69999999999999574 ) ) ;
#250 = SURFACE_STYLE_USAGE ( .BOTH. , #328 ) ;
#251 = CARTESIAN_POINT ( 'NONE',  ( 1.316288464743861212E-13, -4.616918432785521081E-15, 37.69999999999999574 ) ) ;
#252 = CONICAL_SURFACE ( 'NONE', #75, 0.7499999999999998890, 0.3450620389298190704 ) ;
#253 = PRODUCT_DEFINITION_FORMATION_WITH_SPECIFIED_SOURCE ( 'ANY', '', #138, .NOT_KNOWN. ) ;
#254 = EDGE_LOOP ( 'NONE', ( #160, #2 ) ) ;
#255 = EDGE_CURVE ( 'NONE', #46, #82, #161, .T. ) ;
#256 = VERTEX_POINT ( 'NONE', #235 ) ;
#257 = CARTESIAN_POINT ( 'NONE',  ( 0.000000000000000000, 0.000000000000000000, 0.000000000000000000 ) ) ;
#258 = EDGE_CURVE ( 'NONE', #110, #262, #31, .T. ) ;
#259 = ORIENTED_EDGE ( 'NONE', *, *, #58, .F. ) ;
#260 = VECTOR ( 'NONE', #164, 1000.000000000000000 ) ;
#261 = PRODUCT_DEFINITION_CONTEXT ( 'detailed design', #40, 'design' ) ;
#262 = VERTEX_POINT ( 'NONE', #52 ) ;
#263 = CARTESIAN_POINT ( 'NONE',  ( 6.413747168845423897E-31, 1.499999999999996669, 1.836970198721025990E-16 ) ) ;
#264 = VERTEX_POINT ( 'NONE', #54 ) ;
#265 = SURFACE_SIDE_STYLE ('',( #319 ) ) ;
#266 = CARTESIAN_POINT ( 'NONE',  ( 1.326762908760390423E-13, -4.653657836759941941E-15, 38.00000000000000000 ) ) ;
#267 = CIRCLE ( 'NONE', #142, 0.7499999999999998890 ) ;
#268 = DIRECTION ( 'NONE',  ( 1.000000000000000000, 0.000000000000000000, -3.469446951953616950E-15 ) ) ;
#269 = EDGE_CURVE ( 'NONE', #82, #26, #295, .T. ) ;
#270 = AXIS2_PLACEMENT_3D ( 'NONE', #249, #329, #243 ) ;
#271 = AXIS2_PLACEMENT_3D ( 'NONE', #220, #320, #297 ) ;
#272 = ADVANCED_FACE ( 'NONE', ( #14 ), #252, .T. ) ;
#273 = CYLINDRICAL_SURFACE ( 'NONE', #70, 0.7499999999999996669 ) ;
#274 = LINE ( 'NONE', #16, #90 ) ;
#275 = CLOSED_SHELL ( 'NONE', ( #245, #96, #65, #36 ) ) ;
#276 = CARTESIAN_POINT ( 'NONE',  ( 1.621193256365164371E-14, -0.7500000000000003331, 3.600000000000000089 ) ) ;
#277 =( NAMED_UNIT ( * ) PLANE_ANGLE_UNIT ( ) SI_UNIT ( $, .RADIAN. ) );
#278 = DIRECTION ( 'NONE',  ( -3.491481338843133355E-15, 1.224646799147353207E-16, -1.000000000000000000 ) ) ;
#279 = MANIFOLD_SOLID_BREP ( 'Corps-Déplacer/Copier1[1]', #45 ) ;
#280 =( NAMED_UNIT ( * ) SI_UNIT ( $, .STERADIAN. ) SOLID_ANGLE_UNIT ( ) );
#281 = CARTESIAN_POINT ( 'NONE',  ( 1.321525686752125943E-13, 1.199999999999984190, 38.00000000000000000 ) ) ;
#282 = ORIENTED_EDGE ( 'NONE', *, *, #258, .T. ) ;
#283 = CYLINDRICAL_SURFACE ( 'NONE', #179, 0.7499999999999996669 ) ;
#284 = CIRCLE ( 'NONE', #203, 0.7499999999999994449 ) ;
#285 = ORIENTED_EDGE ( 'NONE', *, *, #106, .T. ) ;
#286 = EDGE_CURVE ( 'NONE', #20, #26, #221, .T. ) ;
#287 = DIRECTION ( 'NONE',  ( 1.000000000000000000, 0.000000000000000000, -3.491481338843133355E-15 ) ) ;
#288 = ORIENTED_EDGE ( 'NONE', *, *, #132, .F. ) ;
#289 = CARTESIAN_POINT ( 'NONE',  ( 1.316288464743861212E-13, -4.616918432785521081E-15, 37.69999999999999574 ) ) ;
#290 = COLOUR_RGB ( '',1.000000000000000000, 1.000000000000000000, 1.000000000000000000 ) ;
#291 = ORIENTED_EDGE ( 'NONE', *, *, #131, .T. ) ;
#292 = CARTESIAN_POINT ( 'NONE',  ( 1.318125434942582113E-13, -1.500000000000001332, 37.69999999999999574 ) ) ;
#293 =( GEOMETRIC_REPRESENTATION_CONTEXT ( 3 ) GLOBAL_UNCERTAINTY_ASSIGNED_CONTEXT ( ( #98 ) ) GLOBAL_UNIT_ASSIGNED_CONTEXT ( ( #126, #71, #11 ) ) REPRESENTATION_CONTEXT ( 'NONE', 'WORKASPACE' ) );
#294 = ORIENTED_EDGE ( 'NONE', *, *, #121, .F. ) ;
#295 = LINE ( 'NONE', #118, #206 ) ;
#296 = EDGE_LOOP ( 'NONE', ( #315, #137, #285, #166 ) ) ;
#297 = DIRECTION ( 'NONE',  ( 0.000000000000000000, 1.000000000000000000, 0.000000000000000000 ) ) ;
#298 = CONICAL_SURFACE ( 'NONE', #270, 1.499999999999996669, 0.7853981633974588261 ) ;
#299 = AXIS2_PLACEMENT_3D ( 'NONE', #151, #168, #268 ) ;
#300 = DIRECTION ( 'NONE',  ( 3.491481338843133355E-15, -1.224646799147353207E-16, 1.000000000000000000 ) ) ;
#301 = DIRECTION ( 'NONE',  ( 4.275831445896958607E-31, 1.000000000000000000, 1.224646799147353207E-16 ) ) ;
#302 = CARTESIAN_POINT ( 'NONE',  ( 1.256933281983528008E-14, -4.408728476930471151E-16, 3.600000000000000089 ) ) ;
#303 = DIRECTION ( 'NONE',  ( 0.000000000000000000, 1.000000000000000000, 0.000000000000000000 ) ) ;
#304 = FACE_OUTER_BOUND ( 'NONE', #308, .T. ) ;
#305 = EDGE_CURVE ( 'NONE', #264, #218, #313, .T. ) ;
#306 = CARTESIAN_POINT ( 'NONE',  ( -0.7499999999999998890, 9.184850993605224858E-17, 2.618611004132349622E-15 ) ) ;
#307 = CARTESIAN_POINT ( 'NONE',  ( 1.256933281983528008E-14, 0.7499999999999994449, 3.600000000000000089 ) ) ;
#308 = EDGE_LOOP ( 'NONE', ( #312, #326 ) ) ;
#309 = AXIS2_PLACEMENT_3D ( 'NONE', #289, #80, #191 ) ;
#310 = SURFACE_STYLE_FILL_AREA ( #109 ) ;
#311 = ADVANCED_FACE ( 'NONE', ( #35 ), #60, .T. ) ;
#312 = ORIENTED_EDGE ( 'NONE', *, *, #255, .F. ) ;
#313 = CIRCLE ( 'NONE', #59, 1.499999999999996003 ) ;
#314 = EDGE_LOOP ( 'NONE', ( #294, #282, #210, #214 ) ) ;
#315 = ORIENTED_EDGE ( 'NONE', *, *, #330, .F. ) ;
#316 = EDGE_CURVE ( 'NONE', #46, #20, #242, .T. ) ;
#317 = PRODUCT_CONTEXT ( 'NONE', #21, 'mechanical' ) ;
#318 = EDGE_LOOP ( 'NONE', ( #189, #339, #230, #231 ) ) ;
#319 = SURFACE_STYLE_FILL_AREA ( #324 ) ;
#320 = DIRECTION ( 'NONE',  ( -3.491481338843133355E-15, 1.224646799147353207E-16, -1.000000000000000000 ) ) ;
#321 = ADVANCED_FACE ( 'NONE', ( #222 ), #32, .T. ) ;
#322 = STYLED_ITEM ( 'NONE', ( #74 ), #279 ) ;
#323 = VECTOR ( 'NONE', #215, 1000.000000000000000 ) ;
#324 = FILL_AREA_STYLE ('',( #115 ) ) ;
#325 = CARTESIAN_POINT ( 'NONE',  ( 1.316288464743861212E-13, -4.616918432785521081E-15, 37.69999999999999574 ) ) ;
#326 = ORIENTED_EDGE ( 'NONE', *, *, #336, .F. ) ;
#327 = DIRECTION ( 'NONE',  ( 3.491481338843133355E-15, -1.224646799147353207E-16, 1.000000000000000000 ) ) ;
#328 = SURFACE_SIDE_STYLE ('',( #334 ) ) ;
#329 = DIRECTION ( 'NONE',  ( -3.491481338843133355E-15, 1.224646799147359124E-16, -1.000000000000000000 ) ) ;
#330 = EDGE_CURVE ( 'NONE', #256, #103, #190, .T. ) ;
#331 = DIRECTION ( 'NONE',  ( -2.468850131082238917E-15, 0.7071067811865551223, -0.7071067811865399122 ) ) ;
#332 =( NAMED_UNIT ( * ) PLANE_ANGLE_UNIT ( ) SI_UNIT ( $, .RADIAN. ) );
#333 = ORIENTED_EDGE ( 'NONE', *, *, #255, .T. ) ;
#334 = SURFACE_STYLE_FILL_AREA ( #66 ) ;
#335 = PRODUCT_DEFINITION_SHAPE ( 'NONE', 'NONE',  #180 ) ;
#336 = EDGE_CURVE ( 'NONE', #82, #46, #267, .T. ) ;
#337 =( LENGTH_UNIT ( ) NAMED_UNIT ( * ) SI_UNIT ( .MILLI., .METRE. ) );
#338 = ORIENTED_EDGE ( 'NONE', *, *, #62, .F. ) ;
#339 = ORIENTED_EDGE ( 'NONE', *, *, #5, .F. ) ;
#340 = CIRCLE ( 'NONE', #195, 1.499999999999996003 ) ;
#341 = CYLINDRICAL_SURFACE ( 'NONE', #140, 1.499999999999996669 ) ;
#342 = UNCERTAINTY_MEASURE_WITH_UNIT (LENGTH_MEASURE( 1.000000000000000082E-05 ), #181, 'distance_accuracy_value', 'NONE');
#343 = EDGE_LOOP ( 'NONE', ( #291, #24, #207, #57 ) ) ;
ENDSEC;
END-ISO-10303-21;
