ISO-10303-21;
HEADER;
FILE_DESCRIPTION (( 'STEP AP214' ),
    '1' );
FILE_NAME ('56994.step',
    '2024-04-04T09:56:01',
    ( '' ),
    ( '' ),
    'SwSTEP 2.0',
    'SolidWorks 2022',
    '' );
FILE_SCHEMA (( 'AUTOMOTIVE_DESIGN' ));
ENDSEC;

DATA;
#1 = DIRECTION ( 'NONE',  ( -1.000000000000000000, 0.000000000000000000, 3.491481338843133355E-15 ) ) ;
#2 = FACE_OUTER_BOUND ( 'NONE', #120, .T. ) ;
#3 = VERTEX_POINT ( 'NONE', #251 ) ;
#4 = DIRECTION ( 'NONE',  ( 3.491481338843133355E-15, -0.000000000000000000, 1.000000000000000000 ) ) ;
#5 = ORIENTED_EDGE ( 'NONE', *, *, #290, .T. ) ;
#6 = EDGE_LOOP ( 'NONE', ( #31, #220, #93, #116 ) ) ;
#7 = PRODUCT_RELATED_PRODUCT_CATEGORY ( 'part', '', ( #84 ) ) ;
#8 = DIRECTION ( 'NONE',  ( 0.000000000000000000, -1.000000000000000000, 0.000000000000000000 ) ) ;
#9 = ADVANCED_FACE ( 'NONE', ( #67 ), #187, .T. ) ;
#10 = ADVANCED_FACE ( 'NONE', ( #42 ), #96, .T. ) ;
#11 = AXIS2_PLACEMENT_3D ( 'NONE', #74, #330, #72 ) ;
#12 = ORIENTED_EDGE ( 'NONE', *, *, #312, .T. ) ;
#13 = CARTESIAN_POINT ( 'NONE',  ( 1.117274028429802674E-14, -3.918869757271530460E-16, 3.200000000000000178 ) ) ;
#14 =( LENGTH_UNIT ( ) NAMED_UNIT ( * ) SI_UNIT ( .MILLI., .METRE. ) );
#15 =( GEOMETRIC_REPRESENTATION_CONTEXT ( 3 ) GLOBAL_UNCERTAINTY_ASSIGNED_CONTEXT ( ( #308 ) ) GLOBAL_UNIT_ASSIGNED_CONTEXT ( ( #206, #327, #17 ) ) REPRESENTATION_CONTEXT ( 'NONE', 'WORKASPACE' ) );
#16 = CARTESIAN_POINT ( 'NONE',  ( 1.117274028429802674E-14, -3.918869757271530460E-16, 3.200000000000000178 ) ) ;
#17 =( NAMED_UNIT ( * ) SI_UNIT ( $, .STERADIAN. ) SOLID_ANGLE_UNIT ( ) );
#18 = CYLINDRICAL_SURFACE ( 'NONE', #181, 0.7499999999999996669 ) ;
#19 = MECHANICAL_DESIGN_GEOMETRIC_PRESENTATION_REPRESENTATION (  '', ( #311 ), #15 ) ;
#20 = CLOSED_SHELL ( 'NONE', ( #137, #118, #255, #208 ) ) ;
#21 =( GEOMETRIC_REPRESENTATION_CONTEXT ( 3 ) GLOBAL_UNCERTAINTY_ASSIGNED_CONTEXT ( ( #249 ) ) GLOBAL_UNIT_ASSIGNED_CONTEXT ( ( #14, #161, #47 ) ) REPRESENTATION_CONTEXT ( 'NONE', 'WORKASPACE' ) );
#22 = CARTESIAN_POINT ( 'NONE',  ( -0.7499999999999883427, 9.184850993605144740E-17, 3.200000000000002842 ) ) ;
#23 = CARTESIAN_POINT ( 'NONE',  ( 1.323178959930974653E-13, -1.199999999999993294, 38.00000000000000000 ) ) ;
#24 = VECTOR ( 'NONE', #143, 1000.000000000000000 ) ;
#25 = VERTEX_POINT ( 'NONE', #174 ) ;
#26 = CIRCLE ( 'NONE', #78, 0.7499999999999998890 ) ;
#27 = LINE ( 'NONE', #144, #175 ) ;
#28 = VERTEX_POINT ( 'NONE', #122 ) ;
#29 = DIRECTION ( 'NONE',  ( 3.491481338843133355E-15, -0.000000000000000000, 1.000000000000000000 ) ) ;
#30 = CARTESIAN_POINT ( 'NONE',  ( 1.845793977193075083E-14, 1.499999999999995337, 5.286564062818849941 ) ) ;
#31 = ORIENTED_EDGE ( 'NONE', *, *, #230, .T. ) ;
#32 = CARTESIAN_POINT ( 'NONE',  ( 2.137915722948480453E-32, 0.7499999999999998890, 6.123233995736769426E-18 ) ) ;
#33 = EDGE_LOOP ( 'NONE', ( #145, #242, #92, #298 ) ) ;
#34 = PRODUCT_DEFINITION ( 'UNKNOWN', '', #275, #337 ) ;
#35 = AXIS2_PLACEMENT_3D ( 'NONE', #205, #182, #288 ) ;
#36 = AXIS2_PLACEMENT_3D ( 'NONE', #37, #126, #147 ) ;
#37 = CARTESIAN_POINT ( 'NONE',  ( 1.117274028429802674E-14, 0.7499999999999994449, 3.200000000000000178 ) ) ;
#38 = AXIS2_PLACEMENT_3D ( 'NONE', #13, #277, #8 ) ;
#39 = ORIENTED_EDGE ( 'NONE', *, *, #50, .F. ) ;
#40 = CARTESIAN_POINT ( 'NONE',  ( 1.321525686752125943E-13, 1.199999999999984190, 38.00000000000000000 ) ) ;
#41 = VECTOR ( 'NONE', #4, 1000.000000000000000 ) ;
#42 = FACE_OUTER_BOUND ( 'NONE', #114, .T. ) ;
#43 = CARTESIAN_POINT ( 'NONE',  ( 1.117274028429802674E-14, 0.000000000000000000, 3.200000000000000178 ) ) ;
#44 = CIRCLE ( 'NONE', #94, 0.7499999999999998890 ) ;
#45 = EDGE_CURVE ( 'NONE', #139, #119, #282, .T. ) ;
#46 = DIRECTION ( 'NONE',  ( -3.491481338843133355E-15, 1.224646799147353207E-16, -1.000000000000000000 ) ) ;
#47 =( NAMED_UNIT ( * ) SI_UNIT ( $, .STERADIAN. ) SOLID_ANGLE_UNIT ( ) );
#48 = CARTESIAN_POINT ( 'NONE',  ( 1.117274028429802674E-14, 0.000000000000000000, 3.200000000000000178 ) ) ;
#49 = DIRECTION ( 'NONE',  ( 0.000000000000000000, 1.000000000000000000, 0.000000000000000000 ) ) ;
#50 = EDGE_CURVE ( 'NONE', #64, #221, #127, .T. ) ;
#51 = AXIS2_PLACEMENT_3D ( 'NONE', #32, #171, #236 ) ;
#52 = DIRECTION ( 'NONE',  ( -3.491481338843133355E-15, 1.224646799147353207E-16, -1.000000000000000000 ) ) ;
#53 = FACE_OUTER_BOUND ( 'NONE', #195, .T. ) ;
#54 =( NAMED_UNIT ( * ) PLANE_ANGLE_UNIT ( ) SI_UNIT ( $, .RADIAN. ) );
#55 = DIRECTION ( 'NONE',  ( 1.000000000000000000, 0.000000000000000000, -3.491481338843133355E-15 ) ) ;
#56 = ORIENTED_EDGE ( 'NONE', *, *, #328, .F. ) ;
#57 = MECHANICAL_DESIGN_GEOMETRIC_PRESENTATION_REPRESENTATION (  '', ( #329 ), #21 ) ;
#58 = SURFACE_STYLE_USAGE ( .BOTH. , #292 ) ;
#59 = PLANE ( 'NONE',  #51 ) ;
#60 = ORIENTED_EDGE ( 'NONE', *, *, #281, .T. ) ;
#61 = DIRECTION ( 'NONE',  ( -3.491481338843133355E-15, 1.224646799147356658E-16, -1.000000000000000000 ) ) ;
#62 = ORIENTED_EDGE ( 'NONE', *, *, #331, .F. ) ;
#63 = APPLICATION_CONTEXT ( 'automotive_design' ) ;
#64 = VERTEX_POINT ( 'NONE', #40 ) ;
#65 = CIRCLE ( 'NONE', #76, 1.199999999999988853 ) ;
#66 = SURFACE_STYLE_FILL_AREA ( #279 ) ;
#67 = FACE_OUTER_BOUND ( 'NONE', #194, .T. ) ;
#68 = MANIFOLD_SOLID_BREP ( 'Corps-Déplacer/Copier1[2]', #20 ) ;
#69 = CARTESIAN_POINT ( 'NONE',  ( 1.845793977193075083E-14, -6.474173758018531051E-16, 5.286564062818849941 ) ) ;
#70 = CIRCLE ( 'NONE', #157, 1.199999999999988853 ) ;
#71 = AXIS2_PLACEMENT_3D ( 'NONE', #283, #307, #132 ) ;
#72 = DIRECTION ( 'NONE',  ( 1.000000000000000000, 0.000000000000000000, 0.000000000000000000 ) ) ;
#73 = ADVANCED_FACE ( 'NONE', ( #228 ), #257, .T. ) ;
#74 = CARTESIAN_POINT ( 'NONE',  ( 0.000000000000000000, 0.000000000000000000, 0.000000000000000000 ) ) ;
#75 = EDGE_CURVE ( 'NONE', #221, #296, #101, .T. ) ;
#76 = AXIS2_PLACEMENT_3D ( 'NONE', #316, #89, #190 ) ;
#77 = EDGE_CURVE ( 'NONE', #28, #215, #103, .T. ) ;
#78 = AXIS2_PLACEMENT_3D ( 'NONE', #262, #46, #235 ) ;
#79 = CARTESIAN_POINT ( 'NONE',  ( 0.7500000000000106581, 0.000000000000000000, 3.199999999999997513 ) ) ;
#80 = CARTESIAN_POINT ( 'NONE',  ( 7.522709014303044565E-14, -1.500000000000001332, 37.69999999999998863 ) ) ;
#81 = CARTESIAN_POINT ( 'NONE',  ( 1.126458879423407810E-14, 0.7499999999999994449, 3.200000000000000178 ) ) ;
#82 =( GEOMETRIC_REPRESENTATION_CONTEXT ( 3 ) GLOBAL_UNCERTAINTY_ASSIGNED_CONTEXT ( ( #134 ) ) GLOBAL_UNIT_ASSIGNED_CONTEXT ( ( #216, #54, #193 ) ) REPRESENTATION_CONTEXT ( 'NONE', 'WORKASPACE' ) );
#83 = DIRECTION ( 'NONE',  ( 0.000000000000000000, 1.000000000000000000, 0.000000000000000000 ) ) ;
#84 = PRODUCT ( '56994', '56994', '', ( #98 ) ) ;
#85 = AXIS2_PLACEMENT_3D ( 'NONE', #286, #52, #128 ) ;
#86 = LINE ( 'NONE', #267, #41 ) ;
#87 = EDGE_LOOP ( 'NONE', ( #12, #191 ) ) ;
#88 = FILL_AREA_STYLE ('',( #232 ) ) ;
#89 = DIRECTION ( 'NONE',  ( 3.491481338843133355E-15, -1.224646799147353207E-16, 1.000000000000000000 ) ) ;
#90 = ORIENTED_EDGE ( 'NONE', *, *, #290, .F. ) ;
#91 = CARTESIAN_POINT ( 'NONE',  ( 1.117274028429802674E-14, -3.918869757271530460E-16, 3.200000000000000178 ) ) ;
#92 = ORIENTED_EDGE ( 'NONE', *, *, #328, .T. ) ;
#93 = ORIENTED_EDGE ( 'NONE', *, *, #312, .F. ) ;
#94 = AXIS2_PLACEMENT_3D ( 'NONE', #16, #336, #49 ) ;
#95 = VERTEX_POINT ( 'NONE', #23 ) ;
#96 = PLANE ( 'NONE',  #36 ) ;
#97 = ORIENTED_EDGE ( 'NONE', *, *, #179, .F. ) ;
#98 = PRODUCT_CONTEXT ( 'NONE', #63, 'mechanical' ) ;
#99 = AXIS2_PLACEMENT_3D ( 'NONE', #48, #263, #109 ) ;
#100 = ADVANCED_BREP_SHAPE_REPRESENTATION ( '56994', ( #180, #68, #11 ), #82 ) ;
#101 = CIRCLE ( 'NONE', #71, 1.499999999999996669 ) ;
#102 = EDGE_CURVE ( 'NONE', #250, #28, #44, .T. ) ;
#103 = LINE ( 'NONE', #81, #186 ) ;
#104 = PRESENTATION_STYLE_ASSIGNMENT (( #333 ) ) ;
#105 = CARTESIAN_POINT ( 'NONE',  ( 1.326762908760390423E-13, -4.653657836759941941E-15, 38.00000000000000000 ) ) ;
#106 = FACE_OUTER_BOUND ( 'NONE', #299, .T. ) ;
#107 = DIRECTION ( 'NONE',  ( 3.491481338843133355E-15, -0.000000000000000000, 1.000000000000000000 ) ) ;
#108 = LINE ( 'NONE', #185, #140 ) ;
#109 = DIRECTION ( 'NONE',  ( 1.000000000000000000, 0.000000000000000000, -3.469446951953616950E-15 ) ) ;
#110 = LINE ( 'NONE', #217, #133 ) ;
#111 = ORIENTED_EDGE ( 'NONE', *, *, #166, .F. ) ;
#112 = DIRECTION ( 'NONE',  ( 0.000000000000000000, 1.000000000000000000, 0.000000000000000000 ) ) ;
#113 = FACE_OUTER_BOUND ( 'NONE', #323, .T. ) ;
#114 = EDGE_LOOP ( 'NONE', ( #248, #265 ) ) ;
#115 =( LENGTH_UNIT ( ) NAMED_UNIT ( * ) SI_UNIT ( .MILLI., .METRE. ) );
#116 = ORIENTED_EDGE ( 'NONE', *, *, #253, .F. ) ;
#117 = FACE_OUTER_BOUND ( 'NONE', #87, .T. ) ;
#118 = ADVANCED_FACE ( 'NONE', ( #106 ), #18, .T. ) ;
#119 = VERTEX_POINT ( 'NONE', #79 ) ;
#120 = EDGE_LOOP ( 'NONE', ( #173, #62, #278, #97 ) ) ;
#121 = ADVANCED_FACE ( 'NONE', ( #309 ), #184, .T. ) ;
#122 = CARTESIAN_POINT ( 'NONE',  ( 1.495311279301846425E-14, 0.7499999999999994449, 3.200000000000000178 ) ) ;
#123 = COLOUR_RGB ( '',1.000000000000000000, 1.000000000000000000, 1.000000000000000000 ) ;
#124 = STYLED_ITEM ( 'NONE', ( #104 ), #180 ) ;
#125 = DIRECTION ( 'NONE',  ( 3.491481338843133355E-15, -0.000000000000000000, 1.000000000000000000 ) ) ;
#126 = DIRECTION ( 'NONE',  ( -3.491481338843133355E-15, 1.224646799147353207E-16, -1.000000000000000000 ) ) ;
#127 = LINE ( 'NONE', #199, #260 ) ;
#128 = DIRECTION ( 'NONE',  ( 4.275831445896958607E-31, 1.000000000000000000, 1.224646799147353454E-16 ) ) ;
#129 = CARTESIAN_POINT ( 'NONE',  ( 1.845793977193075083E-14, -6.474173758018531051E-16, 5.286564062818849941 ) ) ;
#130 = LINE ( 'NONE', #314, #163 ) ;
#131 = CLOSED_SHELL ( 'NONE', ( #155, #9, #223, #10, #73, #121, #317, #229 ) ) ;
#132 = DIRECTION ( 'NONE',  ( 3.819167204710538499E-14, -1.000000000000000000, 0.000000000000000000 ) ) ;
#133 = VECTOR ( 'NONE', #270, 1000.000000000000000 ) ;
#134 = UNCERTAINTY_MEASURE_WITH_UNIT (LENGTH_MEASURE( 1.000000000000000082E-05 ), #216, 'distance_accuracy_value', 'NONE');
#135 = DIRECTION ( 'NONE',  ( -3.491481338843133355E-15, 1.224646799147353207E-16, -1.000000000000000000 ) ) ;
#136 = CARTESIAN_POINT ( 'NONE',  ( 1.316288464743860959E-13, -4.616918432785520292E-15, 37.69999999999998863 ) ) ;
#137 = ADVANCED_FACE ( 'NONE', ( #158 ), #207, .T. ) ;
#138 = CYLINDRICAL_SURFACE ( 'NONE', #303, 1.499999999999996669 ) ;
#139 = VERTEX_POINT ( 'NONE', #22 ) ;
#140 = VECTOR ( 'NONE', #305, 1000.000000000000000 ) ;
#141 = DIRECTION ( 'NONE',  ( 3.491481338843133355E-15, -0.000000000000000000, 1.000000000000000000 ) ) ;
#142 = EDGE_LOOP ( 'NONE', ( #325, #343 ) ) ;
#143 = DIRECTION ( 'NONE',  ( -3.491481338843133355E-15, 1.224646799147353207E-16, -1.000000000000000000 ) ) ;
#144 = CARTESIAN_POINT ( 'NONE',  ( 0.7500000000000108802, 0.000000000000000000, 3.199999999999997513 ) ) ;
#145 = ORIENTED_EDGE ( 'NONE', *, *, #77, .F. ) ;
#146 = AXIS2_PLACEMENT_3D ( 'NONE', #43, #261, #183 ) ;
#147 = DIRECTION ( 'NONE',  ( 4.275831445896958607E-31, 1.000000000000000000, 1.224646799147353207E-16 ) ) ;
#148 = ORIENTED_EDGE ( 'NONE', *, *, #276, .F. ) ;
#149 = AXIS2_PLACEMENT_3D ( 'NONE', #136, #338, #83 ) ;
#150 = SURFACE_STYLE_USAGE ( .BOTH. , #326 ) ;
#151 = CARTESIAN_POINT ( 'NONE',  ( 1.117274028429802674E-14, 0.000000000000000000, 3.200000000000000178 ) ) ;
#152 = EDGE_CURVE ( 'NONE', #247, #215, #293, .T. ) ;
#153 = AXIS2_PLACEMENT_3D ( 'NONE', #214, #239, #1 ) ;
#154 = FILL_AREA_STYLE_COLOUR ( '', #192 ) ;
#155 = ADVANCED_FACE ( 'NONE', ( #234 ), #177, .T. ) ;
#156 = LINE ( 'NONE', #164, #24 ) ;
#157 = AXIS2_PLACEMENT_3D ( 'NONE', #105, #168, #266 ) ;
#158 = FACE_OUTER_BOUND ( 'NONE', #6, .T. ) ;
#159 = CIRCLE ( 'NONE', #226, 0.7499999999999998890 ) ;
#160 = EDGE_CURVE ( 'NONE', #296, #247, #108, .T. ) ;
#161 =( NAMED_UNIT ( * ) PLANE_ANGLE_UNIT ( ) SI_UNIT ( $, .RADIAN. ) );
#162 = CARTESIAN_POINT ( 'NONE',  ( 7.504339312315843128E-14, 1.499999999999992228, 37.69999999999998863 ) ) ;
#163 = VECTOR ( 'NONE', #210, 1000.000000000000000 ) ;
#164 = CARTESIAN_POINT ( 'NONE',  ( 6.413747168845423897E-31, 1.499999999999996669, 1.836970198721025990E-16 ) ) ;
#165 = APPLICATION_CONTEXT ( 'automotive_design' ) ;
#166 = EDGE_CURVE ( 'NONE', #28, #250, #26, .T. ) ;
#167 = PRESENTATION_LAYER_ASSIGNMENT (  '', '', ( #124 ) ) ;
#168 = DIRECTION ( 'NONE',  ( 3.491481338843133355E-15, -1.224646799147353207E-16, 1.000000000000000000 ) ) ;
#169 =( NAMED_UNIT ( * ) PLANE_ANGLE_UNIT ( ) SI_UNIT ( $, .RADIAN. ) );
#170 = ORIENTED_EDGE ( 'NONE', *, *, #276, .T. ) ;
#171 = DIRECTION ( 'NONE',  ( 3.491481338843133355E-15, -0.000000000000000000, 1.000000000000000000 ) ) ;
#172 = CIRCLE ( 'NONE', #252, 0.7499999999999998890 ) ;
#173 = ORIENTED_EDGE ( 'NONE', *, *, #200, .F. ) ;
#174 = CARTESIAN_POINT ( 'NONE',  ( -0.7500000000000000000, 9.184850993605216230E-17, 2.618611004132350016E-15 ) ) ;
#175 = VECTOR ( 'NONE', #141, 1000.000000000000000 ) ;
#176 = EDGE_LOOP ( 'NONE', ( #318, #212, #5, #269 ) ) ;
#177 = CONICAL_SURFACE ( 'NONE', #149, 1.499999999999996669, 0.7853981633974472798 ) ;
#178 = APPLICATION_PROTOCOL_DEFINITION ( 'draft international standard', 'automotive_design', 1998, #165 ) ;
#179 = EDGE_CURVE ( 'NONE', #296, #221, #268, .T. ) ;
#180 = MANIFOLD_SOLID_BREP ( 'Corps-Déplacer/Copier1[1]', #131 ) ;
#181 = AXIS2_PLACEMENT_3D ( 'NONE', #284, #107, #339 ) ;
#182 = DIRECTION ( 'NONE',  ( 3.491481338843133355E-15, -1.224646799147353207E-16, 1.000000000000000000 ) ) ;
#183 = DIRECTION ( 'NONE',  ( 1.000000000000000000, 0.000000000000000000, -3.469446951953615767E-15 ) ) ;
#184 = CYLINDRICAL_SURFACE ( 'NONE', #85, 1.499999999999996669 ) ;
#185 = CARTESIAN_POINT ( 'NONE',  ( 1.836970198721019580E-16, -1.499999999999996669, -1.836970198721032153E-16 ) ) ;
#186 = VECTOR ( 'NONE', #233, 1000.000000000000114 ) ;
#187 = CONICAL_SURFACE ( 'NONE', #38, 0.7499999999999998890, 0.3450620389298190149 ) ;
#188 = CARTESIAN_POINT ( 'NONE',  ( 1.316288464743860959E-13, -4.616918432785520292E-15, 37.69999999999998863 ) ) ;
#189 = SURFACE_STYLE_FILL_AREA ( #88 ) ;
#190 = DIRECTION ( 'NONE',  ( 0.000000000000000000, -1.000000000000000000, 0.000000000000000000 ) ) ;
#191 = ORIENTED_EDGE ( 'NONE', *, *, #45, .T. ) ;
#192 = COLOUR_RGB ( '',1.000000000000000000, 1.000000000000000000, 1.000000000000000000 ) ;
#193 =( NAMED_UNIT ( * ) SI_UNIT ( $, .STERADIAN. ) SOLID_ANGLE_UNIT ( ) );
#194 = EDGE_LOOP ( 'NONE', ( #111, #218, #170, #56 ) ) ;
#195 = EDGE_LOOP ( 'NONE', ( #302, #271, #148, #90 ) ) ;
#196 = EDGE_CURVE ( 'NONE', #25, #139, #86, .T. ) ;
#197 = AXIS2_PLACEMENT_3D ( 'NONE', #151, #125, #224 ) ;
#198 = EDGE_LOOP ( 'NONE', ( #201, #294, #320, #39 ) ) ;
#199 = CARTESIAN_POINT ( 'NONE',  ( 1.316288464743860959E-13, 1.499999999999992228, 37.69999999999998863 ) ) ;
#200 = EDGE_CURVE ( 'NONE', #95, #296, #110, .T. ) ;
#201 = ORIENTED_EDGE ( 'NONE', *, *, #258, .F. ) ;
#202 = CONICAL_SURFACE ( 'NONE', #246, 1.499999999999996669, 0.7853981633974472798 ) ;
#203 = SURFACE_SIDE_STYLE ('',( #332 ) ) ;
#204 =( GEOMETRIC_REPRESENTATION_CONTEXT ( 3 ) GLOBAL_UNCERTAINTY_ASSIGNED_CONTEXT ( ( #259 ) ) GLOBAL_UNIT_ASSIGNED_CONTEXT ( ( #115, #169, #211 ) ) REPRESENTATION_CONTEXT ( 'NONE', 'WORKASPACE' ) );
#205 = CARTESIAN_POINT ( 'NONE',  ( 1.326762908760390423E-13, -4.653657836759941941E-15, 38.00000000000000000 ) ) ;
#206 =( LENGTH_UNIT ( ) NAMED_UNIT ( * ) SI_UNIT ( .MILLI., .METRE. ) );
#207 = CYLINDRICAL_SURFACE ( 'NONE', #146, 0.7499999999999996669 ) ;
#208 = ADVANCED_FACE ( 'NONE', ( #113 ), #59, .F. ) ;
#209 = CARTESIAN_POINT ( 'NONE',  ( 1.316288464743860959E-13, -4.616918432785520292E-15, 37.69999999999998863 ) ) ;
#210 = DIRECTION ( 'NONE',  ( 3.285674118869261816E-15, -0.3382550599108820055, 0.9410544694355824635 ) ) ;
#211 =( NAMED_UNIT ( * ) SI_UNIT ( $, .STERADIAN. ) SOLID_ANGLE_UNIT ( ) );
#212 = ORIENTED_EDGE ( 'NONE', *, *, #179, .T. ) ;
#213 = DIRECTION ( 'NONE',  ( 3.491481338843133355E-15, -1.224646799147353207E-16, 1.000000000000000000 ) ) ;
#214 = CARTESIAN_POINT ( 'NONE',  ( 1.117274028429802674E-14, 0.7499999999999994449, 3.200000000000000178 ) ) ;
#215 = VERTEX_POINT ( 'NONE', #30 ) ;
#216 =( LENGTH_UNIT ( ) NAMED_UNIT ( * ) SI_UNIT ( .MILLI., .METRE. ) );
#217 = CARTESIAN_POINT ( 'NONE',  ( 1.318125434942581860E-13, -1.500000000000001332, 37.69999999999998863 ) ) ;
#218 = ORIENTED_EDGE ( 'NONE', *, *, #77, .T. ) ;
#219 = DIRECTION ( 'NONE',  ( 3.491481338843133355E-15, -0.000000000000000000, 1.000000000000000000 ) ) ;
#220 = ORIENTED_EDGE ( 'NONE', *, *, #196, .T. ) ;
#221 = VERTEX_POINT ( 'NONE', #162 ) ;
#222 = ORIENTED_EDGE ( 'NONE', *, *, #230, .F. ) ;
#223 = ADVANCED_FACE ( 'NONE', ( #53 ), #138, .T. ) ;
#224 = DIRECTION ( 'NONE',  ( 1.000000000000000000, 0.000000000000000000, -3.469446951953616950E-15 ) ) ;
#225 = FILL_AREA_STYLE_COLOUR ( '', #324 ) ;
#226 = AXIS2_PLACEMENT_3D ( 'NONE', #289, #219, #55 ) ;
#227 = PRESENTATION_STYLE_ASSIGNMENT (( #150 ) ) ;
#228 = FACE_OUTER_BOUND ( 'NONE', #142, .T. ) ;
#229 = ADVANCED_FACE ( 'NONE', ( #2 ), #202, .T. ) ;
#230 = EDGE_CURVE ( 'NONE', #3, #25, #159, .T. ) ;
#231 = DIRECTION ( 'NONE',  ( -3.730349362740525976E-14, -1.000000000000000000, 0.000000000000000000 ) ) ;
#232 = FILL_AREA_STYLE_COLOUR ( '', #123 ) ;
#233 = DIRECTION ( 'NONE',  ( 3.327098416510788004E-15, 0.3382550599108817835, 0.9410544694355825746 ) ) ;
#234 = FACE_OUTER_BOUND ( 'NONE', #198, .T. ) ;
#235 = DIRECTION ( 'NONE',  ( 0.000000000000000000, 1.000000000000000000, 0.000000000000000000 ) ) ;
#236 = DIRECTION ( 'NONE',  ( 1.000000000000000000, 0.000000000000000000, -3.491481338843133355E-15 ) ) ;
#237 = AXIS2_PLACEMENT_3D ( 'NONE', #129, #135, #310 ) ;
#238 = APPLICATION_PROTOCOL_DEFINITION ( 'draft international standard', 'automotive_design', 1998, #63 ) ;
#239 = DIRECTION ( 'NONE',  ( -3.491481338843133355E-15, 0.000000000000000000, -1.000000000000000000 ) ) ;
#240 = CARTESIAN_POINT ( 'NONE',  ( 0.000000000000000000, 0.000000000000000000, 0.000000000000000000 ) ) ;
#241 = DIRECTION ( 'NONE',  ( 4.275831445896958607E-31, 1.000000000000000000, 1.224646799147353454E-16 ) ) ;
#242 = ORIENTED_EDGE ( 'NONE', *, *, #102, .F. ) ;
#243 = CIRCLE ( 'NONE', #304, 1.499999999999996003 ) ;
#244 = CARTESIAN_POINT ( 'NONE',  ( 7.522709014303050875E-14, -1.499999999999996669, 5.286564062818849941 ) ) ;
#245 = ORIENTED_EDGE ( 'NONE', *, *, #281, .F. ) ;
#246 = AXIS2_PLACEMENT_3D ( 'NONE', #188, #61, #273 ) ;
#247 = VERTEX_POINT ( 'NONE', #244 ) ;
#248 = ORIENTED_EDGE ( 'NONE', *, *, #102, .T. ) ;
#249 = UNCERTAINTY_MEASURE_WITH_UNIT (LENGTH_MEASURE( 1.000000000000000082E-05 ), #14, 'distance_accuracy_value', 'NONE');
#250 = VERTEX_POINT ( 'NONE', #342 ) ;
#251 = CARTESIAN_POINT ( 'NONE',  ( 0.7499999999999998890, 0.000000000000000000, -2.618611004132349622E-15 ) ) ;
#252 = AXIS2_PLACEMENT_3D ( 'NONE', #240, #29, #285 ) ;
#253 = EDGE_CURVE ( 'NONE', #3, #119, #27, .T. ) ;
#254 = SHAPE_DEFINITION_REPRESENTATION ( #272, #100 ) ;
#255 = ADVANCED_FACE ( 'NONE', ( #117 ), #264, .F. ) ;
#256 = FILL_AREA_STYLE ('',( #154 ) ) ;
#257 = PLANE ( 'NONE',  #35 ) ;
#258 = EDGE_CURVE ( 'NONE', #95, #64, #65, .T. ) ;
#259 = UNCERTAINTY_MEASURE_WITH_UNIT (LENGTH_MEASURE( 1.000000000000000082E-05 ), #115, 'distance_accuracy_value', 'NONE');
#260 = VECTOR ( 'NONE', #300, 999.9999999999998863 ) ;
#261 = DIRECTION ( 'NONE',  ( 3.491481338843133355E-15, -0.000000000000000000, 1.000000000000000000 ) ) ;
#262 = CARTESIAN_POINT ( 'NONE',  ( 1.117274028429802674E-14, -3.918869757271530460E-16, 3.200000000000000178 ) ) ;
#263 = DIRECTION ( 'NONE',  ( 3.491481338843133355E-15, -0.000000000000000000, 1.000000000000000000 ) ) ;
#264 = PLANE ( 'NONE',  #153 ) ;
#265 = ORIENTED_EDGE ( 'NONE', *, *, #166, .T. ) ;
#266 = DIRECTION ( 'NONE',  ( 0.000000000000000000, -1.000000000000000000, 0.000000000000000000 ) ) ;
#267 = CARTESIAN_POINT ( 'NONE',  ( -0.7499999999999885647, 9.184850993605145972E-17, 3.200000000000002842 ) ) ;
#268 = CIRCLE ( 'NONE', #335, 1.499999999999996669 ) ;
#269 = ORIENTED_EDGE ( 'NONE', *, *, #152, .F. ) ;
#270 = DIRECTION ( 'NONE',  ( -2.382254525458719047E-15, -0.7071067811865466846, -0.7071067811865483499 ) ) ;
#271 = ORIENTED_EDGE ( 'NONE', *, *, #160, .T. ) ;
#272 = PRODUCT_DEFINITION_SHAPE ( 'NONE', 'NONE',  #34 ) ;
#273 = DIRECTION ( 'NONE',  ( 0.000000000000000000, 1.000000000000000000, 0.000000000000000000 ) ) ;
#274 = ORIENTED_EDGE ( 'NONE', *, *, #196, .F. ) ;
#275 = PRODUCT_DEFINITION_FORMATION_WITH_SPECIFIED_SOURCE ( 'ANY', '', #84, .NOT_KNOWN. ) ;
#276 = EDGE_CURVE ( 'NONE', #215, #247, #243, .T. ) ;
#277 = DIRECTION ( 'NONE',  ( 3.491481338843133355E-15, -1.224646799147353207E-16, 1.000000000000000000 ) ) ;
#278 = ORIENTED_EDGE ( 'NONE', *, *, #50, .T. ) ;
#279 = FILL_AREA_STYLE ('',( #225 ) ) ;
#280 = ORIENTED_EDGE ( 'NONE', *, *, #253, .T. ) ;
#281 = EDGE_CURVE ( 'NONE', #25, #3, #172, .T. ) ;
#282 = CIRCLE ( 'NONE', #197, 0.7499999999999994449 ) ;
#283 = CARTESIAN_POINT ( 'NONE',  ( 1.316288464743860959E-13, -4.616918432785520292E-15, 37.69999999999998863 ) ) ;
#284 = CARTESIAN_POINT ( 'NONE',  ( 1.117274028429802674E-14, 0.000000000000000000, 3.200000000000000178 ) ) ;
#285 = DIRECTION ( 'NONE',  ( 1.000000000000000000, 0.000000000000000000, -3.491481338843133355E-15 ) ) ;
#286 = CARTESIAN_POINT ( 'NONE',  ( 0.000000000000000000, 0.000000000000000000, 0.000000000000000000 ) ) ;
#287 = PRESENTATION_LAYER_ASSIGNMENT (  '', '', ( #329 ) ) ;
#288 = DIRECTION ( 'NONE',  ( -4.275831445896958607E-31, -1.000000000000000000, -1.224646799147353207E-16 ) ) ;
#289 = CARTESIAN_POINT ( 'NONE',  ( 0.000000000000000000, 0.000000000000000000, 0.000000000000000000 ) ) ;
#290 = EDGE_CURVE ( 'NONE', #221, #215, #156, .T. ) ;
#291 = DIRECTION ( 'NONE',  ( -3.491481338843133355E-15, 1.224646799147353207E-16, -1.000000000000000000 ) ) ;
#292 = SURFACE_SIDE_STYLE ('',( #189 ) ) ;
#293 = CIRCLE ( 'NONE', #237, 1.499999999999996003 ) ;
#294 = ORIENTED_EDGE ( 'NONE', *, *, #200, .T. ) ;
#295 = FACE_OUTER_BOUND ( 'NONE', #33, .T. ) ;
#296 = VERTEX_POINT ( 'NONE', #80 ) ;
#297 = PRESENTATION_LAYER_ASSIGNMENT (  '', '', ( #311 ) ) ;
#298 = ORIENTED_EDGE ( 'NONE', *, *, #152, .T. ) ;
#299 = EDGE_LOOP ( 'NONE', ( #274, #60, #280, #321 ) ) ;
#300 = DIRECTION ( 'NONE',  ( -2.468850131082267710E-15, 0.7071067811865469066, -0.7071067811865482389 ) ) ;
#301 = CONICAL_SURFACE ( 'NONE', #322, 0.7499999999999998890, 0.3450620389298190149 ) ;
#302 = ORIENTED_EDGE ( 'NONE', *, *, #75, .T. ) ;
#303 = AXIS2_PLACEMENT_3D ( 'NONE', #315, #291, #241 ) ;
#304 = AXIS2_PLACEMENT_3D ( 'NONE', #69, #341, #112 ) ;
#305 = DIRECTION ( 'NONE',  ( -3.491481338843133355E-15, 1.224646799147353207E-16, -1.000000000000000000 ) ) ;
#306 = MECHANICAL_DESIGN_GEOMETRIC_PRESENTATION_REPRESENTATION (  '', ( #124 ), #204 ) ;
#307 = DIRECTION ( 'NONE',  ( -3.491481338843133355E-15, 1.224646799147356658E-16, -1.000000000000000000 ) ) ;
#308 = UNCERTAINTY_MEASURE_WITH_UNIT (LENGTH_MEASURE( 1.000000000000000082E-05 ), #206, 'distance_accuracy_value', 'NONE');
#309 = FACE_OUTER_BOUND ( 'NONE', #176, .T. ) ;
#310 = DIRECTION ( 'NONE',  ( 0.000000000000000000, 1.000000000000000000, 0.000000000000000000 ) ) ;
#311 = STYLED_ITEM ( 'NONE', ( #334 ), #100 ) ;
#312 = EDGE_CURVE ( 'NONE', #119, #139, #340, .T. ) ;
#313 = DIRECTION ( 'NONE',  ( -3.491481338843133355E-15, 1.224646799147356658E-16, -1.000000000000000000 ) ) ;
#314 = CARTESIAN_POINT ( 'NONE',  ( 1.117274028429802674E-14, -0.7500000000000003331, 3.200000000000000178 ) ) ;
#315 = CARTESIAN_POINT ( 'NONE',  ( 0.000000000000000000, 0.000000000000000000, 0.000000000000000000 ) ) ;
#316 = CARTESIAN_POINT ( 'NONE',  ( 1.326762908760390423E-13, -4.653657836759941941E-15, 38.00000000000000000 ) ) ;
#317 = ADVANCED_FACE ( 'NONE', ( #295 ), #301, .T. ) ;
#318 = ORIENTED_EDGE ( 'NONE', *, *, #160, .F. ) ;
#319 = DIRECTION ( 'NONE',  ( 0.000000000000000000, -1.000000000000000000, 0.000000000000000000 ) ) ;
#320 = ORIENTED_EDGE ( 'NONE', *, *, #75, .F. ) ;
#321 = ORIENTED_EDGE ( 'NONE', *, *, #45, .F. ) ;
#322 = AXIS2_PLACEMENT_3D ( 'NONE', #91, #213, #319 ) ;
#323 = EDGE_LOOP ( 'NONE', ( #222, #245 ) ) ;
#324 = COLOUR_RGB ( '',1.000000000000000000, 1.000000000000000000, 1.000000000000000000 ) ;
#325 = ORIENTED_EDGE ( 'NONE', *, *, #331, .T. ) ;
#326 = SURFACE_SIDE_STYLE ('',( #66 ) ) ;
#327 =( NAMED_UNIT ( * ) PLANE_ANGLE_UNIT ( ) SI_UNIT ( $, .RADIAN. ) );
#328 = EDGE_CURVE ( 'NONE', #250, #247, #130, .T. ) ;
#329 = STYLED_ITEM ( 'NONE', ( #227 ), #68 ) ;
#330 = DIRECTION ( 'NONE',  ( 0.000000000000000000, 0.000000000000000000, 1.000000000000000000 ) ) ;
#331 = EDGE_CURVE ( 'NONE', #64, #95, #70, .T. ) ;
#332 = SURFACE_STYLE_FILL_AREA ( #256 ) ;
#333 = SURFACE_STYLE_USAGE ( .BOTH. , #203 ) ;
#334 = PRESENTATION_STYLE_ASSIGNMENT (( #58 ) ) ;
#335 = AXIS2_PLACEMENT_3D ( 'NONE', #209, #313, #231 ) ;
#336 = DIRECTION ( 'NONE',  ( -3.491481338843133355E-15, 1.224646799147353207E-16, -1.000000000000000000 ) ) ;
#337 = PRODUCT_DEFINITION_CONTEXT ( 'detailed design', #165, 'design' ) ;
#338 = DIRECTION ( 'NONE',  ( -3.491481338843133355E-15, 1.224646799147356658E-16, -1.000000000000000000 ) ) ;
#339 = DIRECTION ( 'NONE',  ( 1.000000000000000000, 0.000000000000000000, -3.469446951953615767E-15 ) ) ;
#340 = CIRCLE ( 'NONE', #99, 0.7499999999999994449 ) ;
#341 = DIRECTION ( 'NONE',  ( -3.491481338843133355E-15, 1.224646799147353207E-16, -1.000000000000000000 ) ) ;
#342 = CARTESIAN_POINT ( 'NONE',  ( 1.481534002811438721E-14, -0.7500000000000003331, 3.200000000000000178 ) ) ;
#343 = ORIENTED_EDGE ( 'NONE', *, *, #258, .T. ) ;
ENDSEC;
END-ISO-10303-21;
