ISO-10303-21;
HEADER;
FILE_DESCRIPTION (( 'STEP AP214' ),
    '1' );
FILE_NAME ('56993.step',
    '2024-04-04T09:56:00',
    ( '' ),
    ( '' ),
    'SwSTEP 2.0',
    'SolidWorks 2022',
    '' );
FILE_SCHEMA (( 'AUTOMOTIVE_DESIGN' ));
ENDSEC;

DATA;
#1 = FACE_OUTER_BOUND ( 'NONE', #185, .T. ) ;
#2 = ADVANCED_FACE ( 'NONE', ( #273 ), #161, .T. ) ;
#3 = PRODUCT_DEFINITION_SHAPE ( 'NONE', 'NONE',  #126 ) ;
#4 = DIRECTION ( 'NONE',  ( 3.327098416510788004E-15, 0.3382550599108818390, 0.9410544694355825746 ) ) ;
#5 = ORIENTED_EDGE ( 'NONE', *, *, #180, .T. ) ;
#6 = CARTESIAN_POINT ( 'NONE',  ( 0.000000000000000000, 0.000000000000000000, 0.000000000000000000 ) ) ;
#7 = PRODUCT_DEFINITION_FORMATION_WITH_SPECIFIED_SOURCE ( 'ANY', '', #272, .NOT_KNOWN. ) ;
#8 = FACE_OUTER_BOUND ( 'NONE', #89, .T. ) ;
#9 = SURFACE_STYLE_FILL_AREA ( #169 ) ;
#10 = DIRECTION ( 'NONE',  ( 1.000000000000000000, 0.000000000000000000, -3.336006684570784482E-15 ) ) ;
#11 = EDGE_CURVE ( 'NONE', #88, #108, #48, .T. ) ;
#12 = DIRECTION ( 'NONE',  ( 3.491481338843133355E-15, -0.000000000000000000, 1.000000000000000000 ) ) ;
#13 = CARTESIAN_POINT ( 'NONE',  ( 1.530101999395657239E-14, -0.6500000000000002442, 3.200000000000000178 ) ) ;
#14 = PRESENTATION_LAYER_ASSIGNMENT (  '', '', ( #40 ) ) ;
#15 = PRESENTATION_LAYER_ASSIGNMENT (  '', '', ( #250 ) ) ;
#16 =( NAMED_UNIT ( * ) PLANE_ANGLE_UNIT ( ) SI_UNIT ( $, .RADIAN. ) );
#17 = LINE ( 'NONE', #117, #198 ) ;
#18 = CARTESIAN_POINT ( 'NONE',  ( -0.6499999999999999112, 7.960204194457863270E-17, 2.269462870248036287E-15 ) ) ;
#19 = MECHANICAL_DESIGN_GEOMETRIC_PRESENTATION_REPRESENTATION (  '', ( #40 ), #298 ) ;
#20 = CLOSED_SHELL ( 'NONE', ( #115, #158, #256, #259, #221, #63, #306, #226 ) ) ;
#21 = DIRECTION ( 'NONE',  ( 4.275831445896958607E-31, 1.000000000000000000, 1.224646799147353207E-16 ) ) ;
#22 = CIRCLE ( 'NONE', #157, 1.499999999999996669 ) ;
#23 = DIRECTION ( 'NONE',  ( 0.000000000000000000, 1.000000000000000000, 0.000000000000000000 ) ) ;
#24 = ORIENTED_EDGE ( 'NONE', *, *, #276, .T. ) ;
#25 = PLANE ( 'NONE',  #197 ) ;
#26 = DIRECTION ( 'NONE',  ( 0.000000000000000000, 1.000000000000000000, 0.000000000000000000 ) ) ;
#27 = ORIENTED_EDGE ( 'NONE', *, *, #164, .F. ) ;
#28 = EDGE_CURVE ( 'NONE', #108, #156, #278, .T. ) ;
#29 = AXIS2_PLACEMENT_3D ( 'NONE', #162, #35, #142 ) ;
#30 = LINE ( 'NONE', #314, #67 ) ;
#31 = VERTEX_POINT ( 'NONE', #13 ) ;
#32 = EDGE_LOOP ( 'NONE', ( #140, #139, #179, #182 ) ) ;
#33 = VERTEX_POINT ( 'NONE', #275 ) ;
#34 = CYLINDRICAL_SURFACE ( 'NONE', #249, 0.6499999999999996891 ) ;
#35 = DIRECTION ( 'NONE',  ( -3.491481338843133355E-15, 1.224646799147353207E-16, -1.000000000000000000 ) ) ;
#36 = PRESENTATION_LAYER_ASSIGNMENT (  '', '', ( #213 ) ) ;
#37 = DIRECTION ( 'NONE',  ( 3.491481338843133355E-15, -0.000000000000000000, 1.000000000000000000 ) ) ;
#38 = CARTESIAN_POINT ( 'NONE',  ( 1.942929970361512120E-14, 1.499999999999995337, 5.564772604528030797 ) ) ;
#39 = ADVANCED_FACE ( 'NONE', ( #8 ), #34, .T. ) ;
#40 = STYLED_ITEM ( 'NONE', ( #54 ), #170 ) ;
#41 = DIRECTION ( 'NONE',  ( -3.491481338843133355E-15, 1.224646799147356658E-16, -1.000000000000000000 ) ) ;
#42 = AXIS2_PLACEMENT_3D ( 'NONE', #201, #125, #102 ) ;
#43 = SURFACE_STYLE_USAGE ( .BOTH. , #75 ) ;
#44 = PRODUCT_DEFINITION_CONTEXT ( 'detailed design', #218, 'design' ) ;
#45 = EDGE_CURVE ( 'NONE', #233, #80, #282, .T. ) ;
#46 = AXIS2_PLACEMENT_3D ( 'NONE', #206, #109, #234 ) ;
#47 = CARTESIAN_POINT ( 'NONE',  ( 7.571277010887263083E-14, -1.500000000000001332, 37.69999999999998863 ) ) ;
#48 = CIRCLE ( 'NONE', #331, 1.199999999999988853 ) ;
#49 = DIRECTION ( 'NONE',  ( -3.491481338843133355E-15, 1.224646799147353207E-16, -1.000000000000000000 ) ) ;
#50 = EDGE_CURVE ( 'NONE', #156, #231, #59, .T. ) ;
#51 = PLANE ( 'NONE',  #152 ) ;
#52 = EDGE_LOOP ( 'NONE', ( #130, #339, #242, #83 ) ) ;
#53 = CONICAL_SURFACE ( 'NONE', #183, 0.6499999999999999112, 0.3450620389298190704 ) ;
#54 = PRESENTATION_STYLE_ASSIGNMENT (( #175 ) ) ;
#55 = DIRECTION ( 'NONE',  ( -3.491481338843133355E-15, 1.224646799147353207E-16, -1.000000000000000000 ) ) ;
#56 = ORIENTED_EDGE ( 'NONE', *, *, #73, .T. ) ;
#57 = ORIENTED_EDGE ( 'NONE', *, *, #191, .F. ) ;
#58 = COLOUR_RGB ( '',1.000000000000000000, 1.000000000000000000, 1.000000000000000000 ) ;
#59 = LINE ( 'NONE', #112, #101 ) ;
#60 = AXIS2_PLACEMENT_3D ( 'NONE', #165, #322, #324 ) ;
#61 = PRODUCT_CONTEXT ( 'NONE', #343, 'mechanical' ) ;
#62 = CARTESIAN_POINT ( 'NONE',  ( 0.6499999999999999112, 0.000000000000000000, -2.269462870248036287E-15 ) ) ;
#63 = ADVANCED_FACE ( 'NONE', ( #87 ), #186, .T. ) ;
#64 = CLOSED_SHELL ( 'NONE', ( #2, #39, #94, #106 ) ) ;
#65 = DIRECTION ( 'NONE',  ( -2.468850131082267710E-15, 0.7071067811865469066, -0.7071067811865482389 ) ) ;
#66 = UNCERTAINTY_MEASURE_WITH_UNIT (LENGTH_MEASURE( 1.000000000000000082E-05 ), #222, 'distance_accuracy_value', 'NONE');
#67 = VECTOR ( 'NONE', #4, 1000.000000000000114 ) ;
#68 =( GEOMETRIC_REPRESENTATION_CONTEXT ( 3 ) GLOBAL_UNCERTAINTY_ASSIGNED_CONTEXT ( ( #76 ) ) GLOBAL_UNIT_ASSIGNED_CONTEXT ( ( #114, #16, #241 ) ) REPRESENTATION_CONTEXT ( 'NONE', 'WORKASPACE' ) );
#69 = FILL_AREA_STYLE_COLOUR ( '', #168 ) ;
#70 = ORIENTED_EDGE ( 'NONE', *, *, #332, .T. ) ;
#71 = CARTESIAN_POINT ( 'NONE',  ( 1.117274028429802674E-14, 0.6499999999999994671, 3.200000000000000178 ) ) ;
#72 = DIRECTION ( 'NONE',  ( 3.819167204710538499E-14, -1.000000000000000000, 0.000000000000000000 ) ) ;
#73 = EDGE_CURVE ( 'NONE', #267, #217, #148, .T. ) ;
#74 = CONICAL_SURFACE ( 'NONE', #265, 1.499999999999996669, 0.7853981633974472798 ) ;
#75 = SURFACE_SIDE_STYLE ('',( #307 ) ) ;
#76 = UNCERTAINTY_MEASURE_WITH_UNIT (LENGTH_MEASURE( 1.000000000000000082E-05 ), #114, 'distance_accuracy_value', 'NONE');
#77 = DIRECTION ( 'NONE',  ( -3.491481338843133355E-15, 1.224646799147353207E-16, -1.000000000000000000 ) ) ;
#78 =( LENGTH_UNIT ( ) NAMED_UNIT ( * ) SI_UNIT ( .MILLI., .METRE. ) );
#79 =( GEOMETRIC_REPRESENTATION_CONTEXT ( 3 ) GLOBAL_UNCERTAINTY_ASSIGNED_CONTEXT ( ( #66 ) ) GLOBAL_UNIT_ASSIGNED_CONTEXT ( ( #222, #171, #149 ) ) REPRESENTATION_CONTEXT ( 'NONE', 'WORKASPACE' ) );
#80 = VERTEX_POINT ( 'NONE', #62 ) ;
#81 = VERTEX_POINT ( 'NONE', #38 ) ;
#82 = FACE_OUTER_BOUND ( 'NONE', #223, .T. ) ;
#83 = ORIENTED_EDGE ( 'NONE', *, *, #100, .F. ) ;
#84 = DIRECTION ( 'NONE',  ( 3.491481338843133355E-15, -0.000000000000000000, 1.000000000000000000 ) ) ;
#85 = DIRECTION ( 'NONE',  ( 1.000000000000000000, 0.000000000000000000, -3.491481338843133355E-15 ) ) ;
#86 = ORIENTED_EDGE ( 'NONE', *, *, #150, .T. ) ;
#87 = FACE_OUTER_BOUND ( 'NONE', #32, .T. ) ;
#88 = VERTEX_POINT ( 'NONE', #143 ) ;
#89 = EDGE_LOOP ( 'NONE', ( #287, #238, #317, #215 ) ) ;
#90 = APPLICATION_PROTOCOL_DEFINITION ( 'draft international standard', 'automotive_design', 1998, #218 ) ;
#91 = CARTESIAN_POINT ( 'NONE',  ( 1.326762908760390423E-13, -4.653657836759941941E-15, 38.00000000000000000 ) ) ;
#92 = VECTOR ( 'NONE', #84, 1000.000000000000000 ) ;
#93 = DIRECTION ( 'NONE',  ( -3.491481338843133355E-15, 1.224646799147353207E-16, -1.000000000000000000 ) ) ;
#94 = ADVANCED_FACE ( 'NONE', ( #1 ), #51, .F. ) ;
#95 = DIRECTION ( 'NONE',  ( 1.000000000000000000, 0.000000000000000000, -3.336006684570784482E-15 ) ) ;
#96 =( NAMED_UNIT ( * ) PLANE_ANGLE_UNIT ( ) SI_UNIT ( $, .RADIAN. ) );
#97 = FACE_OUTER_BOUND ( 'NONE', #216, .T. ) ;
#98 = DIRECTION ( 'NONE',  ( -3.730349362740525976E-14, -1.000000000000000000, 0.000000000000000000 ) ) ;
#99 = FACE_OUTER_BOUND ( 'NONE', #323, .T. ) ;
#100 = EDGE_CURVE ( 'NONE', #80, #267, #285, .T. ) ;
#101 = VECTOR ( 'NONE', #93, 1000.000000000000000 ) ;
#102 = DIRECTION ( 'NONE',  ( -4.275831445896958607E-31, -1.000000000000000000, -1.224646799147353207E-16 ) ) ;
#103 = SURFACE_SIDE_STYLE ('',( #286 ) ) ;
#104 = DIRECTION ( 'NONE',  ( -3.491481338843133355E-15, 1.224646799147356658E-16, -1.000000000000000000 ) ) ;
#105 = CARTESIAN_POINT ( 'NONE',  ( 0.000000000000000000, 0.000000000000000000, 0.000000000000000000 ) ) ;
#106 = ADVANCED_FACE ( 'NONE', ( #82 ), #25, .F. ) ;
#107 = FILL_AREA_STYLE_COLOUR ( '', #58 ) ;
#108 = VERTEX_POINT ( 'NONE', #338 ) ;
#109 = DIRECTION ( 'NONE',  ( -3.491481338843133355E-15, 1.224646799147353207E-16, -1.000000000000000000 ) ) ;
#110 = EDGE_LOOP ( 'NONE', ( #235, #236, #310, #312 ) ) ;
#111 = COLOUR_RGB ( '',1.000000000000000000, 1.000000000000000000, 1.000000000000000000 ) ;
#112 = CARTESIAN_POINT ( 'NONE',  ( 1.836970198721019580E-16, -1.499999999999996669, -1.836970198721032153E-16 ) ) ;
#113 = ORIENTED_EDGE ( 'NONE', *, *, #11, .F. ) ;
#114 =( LENGTH_UNIT ( ) NAMED_UNIT ( * ) SI_UNIT ( .MILLI., .METRE. ) );
#115 = ADVANCED_FACE ( 'NONE', ( #261 ), #255, .T. ) ;
#116 = DIRECTION ( 'NONE',  ( -2.382254525458719047E-15, -0.7071067811865466846, -0.7071067811865483499 ) ) ;
#117 = CARTESIAN_POINT ( 'NONE',  ( 1.316288464743860959E-13, 1.499999999999992228, 37.69999999999998863 ) ) ;
#118 = AXIS2_PLACEMENT_3D ( 'NONE', #330, #151, #98 ) ;
#119 = VECTOR ( 'NONE', #279, 1000.000000000000000 ) ;
#120 = DIRECTION ( 'NONE',  ( 3.491481338843133355E-15, -0.000000000000000000, 1.000000000000000000 ) ) ;
#121 = CARTESIAN_POINT ( 'NONE',  ( -0.6499999999999884759, 7.960204194457791779E-17, 3.200000000000002398 ) ) ;
#122 = PRESENTATION_STYLE_ASSIGNMENT (( #43 ) ) ;
#123 = VECTOR ( 'NONE', #37, 1000.000000000000000 ) ;
#124 = CARTESIAN_POINT ( 'NONE',  ( 1.117274028429802674E-14, -3.918869757271530460E-16, 3.200000000000000178 ) ) ;
#125 = DIRECTION ( 'NONE',  ( 3.491481338843133355E-15, -1.224646799147353207E-16, 1.000000000000000000 ) ) ;
#126 = PRODUCT_DEFINITION ( 'UNKNOWN', '', #7, #44 ) ;
#127 = DIRECTION ( 'NONE',  ( 0.000000000000000000, 1.000000000000000000, 0.000000000000000000 ) ) ;
#128 = CIRCLE ( 'NONE', #173, 1.199999999999988853 ) ;
#129 =( GEOMETRIC_REPRESENTATION_CONTEXT ( 3 ) GLOBAL_UNCERTAINTY_ASSIGNED_CONTEXT ( ( #311 ) ) GLOBAL_UNIT_ASSIGNED_CONTEXT ( ( #145, #96, #166 ) ) REPRESENTATION_CONTEXT ( 'NONE', 'WORKASPACE' ) );
#130 = ORIENTED_EDGE ( 'NONE', *, *, #136, .T. ) ;
#131 = LINE ( 'NONE', #229, #219 ) ;
#132 = VERTEX_POINT ( 'NONE', #264 ) ;
#133 = DIRECTION ( 'NONE',  ( 3.491481338843133355E-15, -0.000000000000000000, 1.000000000000000000 ) ) ;
#134 = DIRECTION ( 'NONE',  ( 0.000000000000000000, -1.000000000000000000, 0.000000000000000000 ) ) ;
#135 = ORIENTED_EDGE ( 'NONE', *, *, #28, .F. ) ;
#136 = EDGE_CURVE ( 'NONE', #80, #233, #320, .T. ) ;
#137 = DIRECTION ( 'NONE',  ( 0.000000000000000000, 1.000000000000000000, 0.000000000000000000 ) ) ;
#138 = EDGE_LOOP ( 'NONE', ( #270, #141 ) ) ;
#139 = ORIENTED_EDGE ( 'NONE', *, *, #247, .T. ) ;
#140 = ORIENTED_EDGE ( 'NONE', *, *, #50, .F. ) ;
#141 = ORIENTED_EDGE ( 'NONE', *, *, #284, .T. ) ;
#142 = DIRECTION ( 'NONE',  ( 4.275831445896958607E-31, 1.000000000000000000, 1.224646799147353454E-16 ) ) ;
#143 = CARTESIAN_POINT ( 'NONE',  ( 1.321525686752125943E-13, 1.199999999999984190, 38.00000000000000000 ) ) ;
#144 = DIRECTION ( 'NONE',  ( 1.000000000000000000, 0.000000000000000000, -3.336006684570785665E-15 ) ) ;
#145 =( LENGTH_UNIT ( ) NAMED_UNIT ( * ) SI_UNIT ( .MILLI., .METRE. ) );
#146 = DIRECTION ( 'NONE',  ( -3.491481338843133355E-15, 1.224646799147356658E-16, -1.000000000000000000 ) ) ;
#147 = FACE_OUTER_BOUND ( 'NONE', #138, .T. ) ;
#148 = CIRCLE ( 'NONE', #239, 0.6499999999999994671 ) ;
#149 =( NAMED_UNIT ( * ) SI_UNIT ( $, .STERADIAN. ) SOLID_ANGLE_UNIT ( ) );
#150 = EDGE_CURVE ( 'NONE', #132, #81, #30, .T. ) ;
#151 = DIRECTION ( 'NONE',  ( -3.491481338843133355E-15, 1.224646799147356658E-16, -1.000000000000000000 ) ) ;
#152 = AXIS2_PLACEMENT_3D ( 'NONE', #212, #155, #319 ) ;
#153 = DIRECTION ( 'NONE',  ( 3.491481338843133355E-15, -1.224646799147353207E-16, 1.000000000000000000 ) ) ;
#154 = CARTESIAN_POINT ( 'NONE',  ( 1.326762908760390423E-13, -4.653657836759941941E-15, 38.00000000000000000 ) ) ;
#155 = DIRECTION ( 'NONE',  ( -3.491481338843133355E-15, 0.000000000000000000, -1.000000000000000000 ) ) ;
#156 = VERTEX_POINT ( 'NONE', #47 ) ;
#157 = AXIS2_PLACEMENT_3D ( 'NONE', #308, #146, #72 ) ;
#158 = ADVANCED_FACE ( 'NONE', ( #181 ), #53, .T. ) ;
#159 =( NAMED_UNIT ( * ) PLANE_ANGLE_UNIT ( ) SI_UNIT ( $, .RADIAN. ) );
#160 = ORIENTED_EDGE ( 'NONE', *, *, #11, .T. ) ;
#161 = CYLINDRICAL_SURFACE ( 'NONE', #244, 0.6499999999999996891 ) ;
#162 = CARTESIAN_POINT ( 'NONE',  ( 0.000000000000000000, 0.000000000000000000, 0.000000000000000000 ) ) ;
#163 = DIRECTION ( 'NONE',  ( 3.491481338843133355E-15, -1.224646799147353207E-16, 1.000000000000000000 ) ) ;
#164 = EDGE_CURVE ( 'NONE', #31, #132, #291, .T. ) ;
#165 = CARTESIAN_POINT ( 'NONE',  ( 0.000000000000000000, 0.000000000000000000, 0.000000000000000000 ) ) ;
#166 =( NAMED_UNIT ( * ) SI_UNIT ( $, .STERADIAN. ) SOLID_ANGLE_UNIT ( ) );
#167 = AXIS2_PLACEMENT_3D ( 'NONE', #71, #202, #21 ) ;
#168 = COLOUR_RGB ( '',1.000000000000000000, 1.000000000000000000, 1.000000000000000000 ) ;
#169 = FILL_AREA_STYLE ('',( #69 ) ) ;
#170 = MANIFOLD_SOLID_BREP ( 'Corps-Déplacer/Copier1[1]', #20 ) ;
#171 =( NAMED_UNIT ( * ) PLANE_ANGLE_UNIT ( ) SI_UNIT ( $, .RADIAN. ) );
#172 = DIRECTION ( 'NONE',  ( -3.491481338843133355E-15, 1.224646799147353207E-16, -1.000000000000000000 ) ) ;
#173 = AXIS2_PLACEMENT_3D ( 'NONE', #154, #263, #134 ) ;
#174 = EDGE_LOOP ( 'NONE', ( #237, #27, #70, #5 ) ) ;
#175 = SURFACE_STYLE_USAGE ( .BOTH. , #103 ) ;
#176 = CIRCLE ( 'NONE', #240, 0.6499999999999999112 ) ;
#177 = CARTESIAN_POINT ( 'NONE',  ( 1.942929970361512120E-14, -6.814880958118133102E-16, 5.564772604528030797 ) ) ;
#178 = VECTOR ( 'NONE', #116, 1000.000000000000000 ) ;
#179 = ORIENTED_EDGE ( 'NONE', *, *, #191, .T. ) ;
#180 = EDGE_CURVE ( 'NONE', #231, #81, #228, .T. ) ;
#181 = FACE_OUTER_BOUND ( 'NONE', #297, .T. ) ;
#182 = ORIENTED_EDGE ( 'NONE', *, *, #180, .F. ) ;
#183 = AXIS2_PLACEMENT_3D ( 'NONE', #337, #153, #210 ) ;
#184 = CARTESIAN_POINT ( 'NONE',  ( 1.942929970361512120E-14, -6.814880958118133102E-16, 5.564772604528030797 ) ) ;
#185 = EDGE_LOOP ( 'NONE', ( #56, #243 ) ) ;
#186 = CYLINDRICAL_SURFACE ( 'NONE', #29, 1.499999999999996669 ) ;
#187 = CARTESIAN_POINT ( 'NONE',  ( 1.117274028429802674E-14, -3.918869757271530460E-16, 3.200000000000000178 ) ) ;
#188 = ORIENTED_EDGE ( 'NONE', *, *, #247, .F. ) ;
#189 = AXIS2_PLACEMENT_3D ( 'NONE', #177, #49, #26 ) ;
#190 = SURFACE_SIDE_STYLE ('',( #9 ) ) ;
#191 = EDGE_CURVE ( 'NONE', #33, #81, #131, .T. ) ;
#192 = DIRECTION ( 'NONE',  ( 3.491481338843133355E-15, -0.000000000000000000, 1.000000000000000000 ) ) ;
#193 = PRESENTATION_STYLE_ASSIGNMENT (( #327 ) ) ;
#194 = DIRECTION ( 'NONE',  ( 3.491481338843133355E-15, -0.000000000000000000, 1.000000000000000000 ) ) ;
#195 = EDGE_CURVE ( 'NONE', #81, #231, #280, .T. ) ;
#196 = CARTESIAN_POINT ( 'NONE',  ( 1.117274028429802674E-14, 0.000000000000000000, 3.200000000000000178 ) ) ;
#197 = AXIS2_PLACEMENT_3D ( 'NONE', #316, #205, #85 ) ;
#198 = VECTOR ( 'NONE', #65, 999.9999999999998863 ) ;
#199 = FILL_AREA_STYLE_COLOUR ( '', #111 ) ;
#200 = ADVANCED_BREP_SHAPE_REPRESENTATION ( '56993', ( #170, #283, #60 ), #129 ) ;
#201 = CARTESIAN_POINT ( 'NONE',  ( 1.326762908760390423E-13, -4.653657836759941941E-15, 38.00000000000000000 ) ) ;
#202 = DIRECTION ( 'NONE',  ( -3.491481338843133355E-15, 1.224646799147353207E-16, -1.000000000000000000 ) ) ;
#203 = AXIS2_PLACEMENT_3D ( 'NONE', #305, #77, #333 ) ;
#204 = CARTESIAN_POINT ( 'NONE',  ( 0.6500000000000105693, 0.000000000000000000, 3.199999999999997957 ) ) ;
#205 = DIRECTION ( 'NONE',  ( 3.491481338843133355E-15, -0.000000000000000000, 1.000000000000000000 ) ) ;
#206 = CARTESIAN_POINT ( 'NONE',  ( 1.117274028429802674E-14, -3.918869757271530460E-16, 3.200000000000000178 ) ) ;
#207 = CIRCLE ( 'NONE', #274, 0.6499999999999994671 ) ;
#208 = DIRECTION ( 'NONE',  ( 1.000000000000000000, 0.000000000000000000, -3.491481338843133355E-15 ) ) ;
#209 = EDGE_CURVE ( 'NONE', #108, #88, #128, .T. ) ;
#210 = DIRECTION ( 'NONE',  ( 0.000000000000000000, -1.000000000000000000, 0.000000000000000000 ) ) ;
#211 = EDGE_LOOP ( 'NONE', ( #160, #336 ) ) ;
#212 = CARTESIAN_POINT ( 'NONE',  ( 1.117274028429802674E-14, 0.6499999999999994671, 3.200000000000000178 ) ) ;
#213 = STYLED_ITEM ( 'NONE', ( #122 ), #283 ) ;
#214 = AXIS2_PLACEMENT_3D ( 'NONE', #187, #277, #246 ) ;
#215 = ORIENTED_EDGE ( 'NONE', *, *, #288, .F. ) ;
#216 = EDGE_LOOP ( 'NONE', ( #135, #113, #342, #188 ) ) ;
#217 = VERTEX_POINT ( 'NONE', #232 ) ;
#218 = APPLICATION_CONTEXT ( 'automotive_design' ) ;
#219 = VECTOR ( 'NONE', #309, 1000.000000000000000 ) ;
#220 = ORIENTED_EDGE ( 'NONE', *, *, #332, .F. ) ;
#221 = ADVANCED_FACE ( 'NONE', ( #304 ), #334, .T. ) ;
#222 =( LENGTH_UNIT ( ) NAMED_UNIT ( * ) SI_UNIT ( .MILLI., .METRE. ) );
#223 = EDGE_LOOP ( 'NONE', ( #262, #294 ) ) ;
#224 = CARTESIAN_POINT ( 'NONE',  ( 7.571277010887268131E-14, -1.499999999999996669, 5.564772604528030797 ) ) ;
#225 = DIRECTION ( 'NONE',  ( 0.000000000000000000, 1.000000000000000000, 0.000000000000000000 ) ) ;
#226 = ADVANCED_FACE ( 'NONE', ( #97 ), #74, .T. ) ;
#227 = CYLINDRICAL_SURFACE ( 'NONE', #203, 1.499999999999996669 ) ;
#228 = CIRCLE ( 'NONE', #326, 1.499999999999996003 ) ;
#229 = CARTESIAN_POINT ( 'NONE',  ( 6.413747168845423897E-31, 1.499999999999996669, 1.836970198721025990E-16 ) ) ;
#230 = FILL_AREA_STYLE ('',( #107 ) ) ;
#231 = VERTEX_POINT ( 'NONE', #224 ) ;
#232 = CARTESIAN_POINT ( 'NONE',  ( -0.6499999999999882538, 7.960204194457790546E-17, 3.200000000000002398 ) ) ;
#233 = VERTEX_POINT ( 'NONE', #18 ) ;
#234 = DIRECTION ( 'NONE',  ( 0.000000000000000000, 1.000000000000000000, 0.000000000000000000 ) ) ;
#235 = ORIENTED_EDGE ( 'NONE', *, *, #209, .F. ) ;
#236 = ORIENTED_EDGE ( 'NONE', *, *, #28, .T. ) ;
#237 = ORIENTED_EDGE ( 'NONE', *, *, #150, .F. ) ;
#238 = ORIENTED_EDGE ( 'NONE', *, *, #45, .T. ) ;
#239 = AXIS2_PLACEMENT_3D ( 'NONE', #245, #192, #300 ) ;
#240 = AXIS2_PLACEMENT_3D ( 'NONE', #124, #172, #225 ) ;
#241 =( NAMED_UNIT ( * ) SI_UNIT ( $, .STERADIAN. ) SOLID_ANGLE_UNIT ( ) );
#242 = ORIENTED_EDGE ( 'NONE', *, *, #73, .F. ) ;
#243 = ORIENTED_EDGE ( 'NONE', *, *, #288, .T. ) ;
#244 = AXIS2_PLACEMENT_3D ( 'NONE', #271, #120, #10 ) ;
#245 = CARTESIAN_POINT ( 'NONE',  ( 1.117274028429802674E-14, 0.000000000000000000, 3.200000000000000178 ) ) ;
#246 = DIRECTION ( 'NONE',  ( 0.000000000000000000, -1.000000000000000000, 0.000000000000000000 ) ) ;
#247 = EDGE_CURVE ( 'NONE', #156, #33, #260, .T. ) ;
#248 = CARTESIAN_POINT ( 'NONE',  ( 1.117274028429802674E-14, 0.000000000000000000, 3.200000000000000178 ) ) ;
#249 = AXIS2_PLACEMENT_3D ( 'NONE', #248, #295, #95 ) ;
#250 = STYLED_ITEM ( 'NONE', ( #193 ), #200 ) ;
#251 = APPLICATION_PROTOCOL_DEFINITION ( 'draft international standard', 'automotive_design', 1998, #343 ) ;
#252 = UNCERTAINTY_MEASURE_WITH_UNIT (LENGTH_MEASURE( 1.000000000000000082E-05 ), #78, 'distance_accuracy_value', 'NONE');
#253 = FACE_OUTER_BOUND ( 'NONE', #174, .T. ) ;
#254 = FILL_AREA_STYLE ('',( #199 ) ) ;
#255 = CONICAL_SURFACE ( 'NONE', #335, 1.499999999999996669, 0.7853981633974472798 ) ;
#256 = ADVANCED_FACE ( 'NONE', ( #99 ), #227, .T. ) ;
#257 = CARTESIAN_POINT ( 'NONE',  ( 1.316288464743860959E-13, -4.616918432785520292E-15, 37.69999999999998863 ) ) ;
#258 = PLANE ( 'NONE',  #167 ) ;
#259 = ADVANCED_FACE ( 'NONE', ( #147 ), #258, .T. ) ;
#260 = CIRCLE ( 'NONE', #118, 1.499999999999996669 ) ;
#261 = FACE_OUTER_BOUND ( 'NONE', #110, .T. ) ;
#262 = ORIENTED_EDGE ( 'NONE', *, *, #136, .F. ) ;
#263 = DIRECTION ( 'NONE',  ( 3.491481338843133355E-15, -1.224646799147353207E-16, 1.000000000000000000 ) ) ;
#264 = CARTESIAN_POINT ( 'NONE',  ( 1.543266952486491709E-14, 0.6499999999999994671, 3.200000000000000178 ) ) ;
#265 = AXIS2_PLACEMENT_3D ( 'NONE', #257, #41, #127 ) ;
#266 = MECHANICAL_DESIGN_GEOMETRIC_PRESENTATION_REPRESENTATION (  '', ( #213 ), #79 ) ;
#267 = VERTEX_POINT ( 'NONE', #204 ) ;
#268 =( NAMED_UNIT ( * ) SI_UNIT ( $, .STERADIAN. ) SOLID_ANGLE_UNIT ( ) );
#269 = ORIENTED_EDGE ( 'NONE', *, *, #195, .F. ) ;
#270 = ORIENTED_EDGE ( 'NONE', *, *, #164, .T. ) ;
#271 = CARTESIAN_POINT ( 'NONE',  ( 1.117274028429802674E-14, 0.000000000000000000, 3.200000000000000178 ) ) ;
#272 = PRODUCT ( '56993', '56993', '', ( #61 ) ) ;
#273 = FACE_OUTER_BOUND ( 'NONE', #52, .T. ) ;
#274 = AXIS2_PLACEMENT_3D ( 'NONE', #196, #12, #144 ) ;
#275 = CARTESIAN_POINT ( 'NONE',  ( 7.552907308900061646E-14, 1.499999999999992228, 37.69999999999998863 ) ) ;
#276 = EDGE_CURVE ( 'NONE', #33, #156, #22, .T. ) ;
#277 = DIRECTION ( 'NONE',  ( 3.491481338843133355E-15, -1.224646799147353207E-16, 1.000000000000000000 ) ) ;
#278 = LINE ( 'NONE', #328, #178 ) ;
#279 = DIRECTION ( 'NONE',  ( 3.285674118869261816E-15, -0.3382550599108820610, 0.9410544694355824635 ) ) ;
#280 = CIRCLE ( 'NONE', #189, 1.499999999999996003 ) ;
#281 = CARTESIAN_POINT ( 'NONE',  ( 1.117274028429802674E-14, -0.6500000000000002442, 3.200000000000000178 ) ) ;
#282 = CIRCLE ( 'NONE', #301, 0.6499999999999999112 ) ;
#283 = MANIFOLD_SOLID_BREP ( 'Corps-Déplacer/Copier1[2]', #64 ) ;
#284 = EDGE_CURVE ( 'NONE', #132, #31, #176, .T. ) ;
#285 = LINE ( 'NONE', #341, #92 ) ;
#286 = SURFACE_STYLE_FILL_AREA ( #230 ) ;
#287 = ORIENTED_EDGE ( 'NONE', *, *, #313, .F. ) ;
#288 = EDGE_CURVE ( 'NONE', #217, #267, #207, .T. ) ;
#289 = ORIENTED_EDGE ( 'NONE', *, *, #50, .T. ) ;
#290 = CARTESIAN_POINT ( 'NONE',  ( 1.316288464743860959E-13, -4.616918432785520292E-15, 37.69999999999998863 ) ) ;
#291 = CIRCLE ( 'NONE', #46, 0.6499999999999999112 ) ;
#292 = MECHANICAL_DESIGN_GEOMETRIC_PRESENTATION_REPRESENTATION (  '', ( #250 ), #68 ) ;
#293 = ORIENTED_EDGE ( 'NONE', *, *, #195, .T. ) ;
#294 = ORIENTED_EDGE ( 'NONE', *, *, #45, .F. ) ;
#295 = DIRECTION ( 'NONE',  ( 3.491481338843133355E-15, -0.000000000000000000, 1.000000000000000000 ) ) ;
#296 = SHAPE_DEFINITION_REPRESENTATION ( #3, #200 ) ;
#297 = EDGE_LOOP ( 'NONE', ( #315, #86, #293, #220 ) ) ;
#298 =( GEOMETRIC_REPRESENTATION_CONTEXT ( 3 ) GLOBAL_UNCERTAINTY_ASSIGNED_CONTEXT ( ( #252 ) ) GLOBAL_UNIT_ASSIGNED_CONTEXT ( ( #78, #159, #268 ) ) REPRESENTATION_CONTEXT ( 'NONE', 'WORKASPACE' ) );
#299 = PRODUCT_RELATED_PRODUCT_CATEGORY ( 'part', '', ( #272 ) ) ;
#300 = DIRECTION ( 'NONE',  ( 1.000000000000000000, 0.000000000000000000, -3.336006684570785665E-15 ) ) ;
#301 = AXIS2_PLACEMENT_3D ( 'NONE', #6, #194, #325 ) ;
#302 = CONICAL_SURFACE ( 'NONE', #214, 0.6499999999999999112, 0.3450620389298190704 ) ;
#303 = LINE ( 'NONE', #281, #119 ) ;
#304 = FACE_OUTER_BOUND ( 'NONE', #211, .T. ) ;
#305 = CARTESIAN_POINT ( 'NONE',  ( 0.000000000000000000, 0.000000000000000000, 0.000000000000000000 ) ) ;
#306 = ADVANCED_FACE ( 'NONE', ( #253 ), #302, .T. ) ;
#307 = SURFACE_STYLE_FILL_AREA ( #254 ) ;
#308 = CARTESIAN_POINT ( 'NONE',  ( 1.316288464743860959E-13, -4.616918432785520292E-15, 37.69999999999998863 ) ) ;
#309 = DIRECTION ( 'NONE',  ( -3.491481338843133355E-15, 1.224646799147353207E-16, -1.000000000000000000 ) ) ;
#310 = ORIENTED_EDGE ( 'NONE', *, *, #276, .F. ) ;
#311 = UNCERTAINTY_MEASURE_WITH_UNIT (LENGTH_MEASURE( 1.000000000000000082E-05 ), #145, 'distance_accuracy_value', 'NONE');
#312 = ORIENTED_EDGE ( 'NONE', *, *, #318, .F. ) ;
#313 = EDGE_CURVE ( 'NONE', #233, #217, #329, .T. ) ;
#314 = CARTESIAN_POINT ( 'NONE',  ( 1.125234232624260553E-14, 0.6499999999999994671, 3.200000000000000178 ) ) ;
#315 = ORIENTED_EDGE ( 'NONE', *, *, #284, .F. ) ;
#316 = CARTESIAN_POINT ( 'NONE',  ( 3.206873584422718626E-32, 0.6499999999999999112, 9.184850993605147205E-18 ) ) ;
#317 = ORIENTED_EDGE ( 'NONE', *, *, #100, .T. ) ;
#318 = EDGE_CURVE ( 'NONE', #88, #33, #17, .T. ) ;
#319 = DIRECTION ( 'NONE',  ( -1.000000000000000000, 0.000000000000000000, 3.491481338843133355E-15 ) ) ;
#320 = CIRCLE ( 'NONE', #340, 0.6499999999999999112 ) ;
#321 = DIRECTION ( 'NONE',  ( 0.000000000000000000, -1.000000000000000000, 0.000000000000000000 ) ) ;
#322 = DIRECTION ( 'NONE',  ( 0.000000000000000000, 0.000000000000000000, 1.000000000000000000 ) ) ;
#323 = EDGE_LOOP ( 'NONE', ( #24, #289, #269, #57 ) ) ;
#324 = DIRECTION ( 'NONE',  ( 1.000000000000000000, 0.000000000000000000, 0.000000000000000000 ) ) ;
#325 = DIRECTION ( 'NONE',  ( 1.000000000000000000, 0.000000000000000000, -3.491481338843133355E-15 ) ) ;
#326 = AXIS2_PLACEMENT_3D ( 'NONE', #184, #55, #23 ) ;
#327 = SURFACE_STYLE_USAGE ( .BOTH. , #190 ) ;
#328 = CARTESIAN_POINT ( 'NONE',  ( 1.318125434942581860E-13, -1.500000000000001332, 37.69999999999998863 ) ) ;
#329 = LINE ( 'NONE', #121, #123 ) ;
#330 = CARTESIAN_POINT ( 'NONE',  ( 1.316288464743860959E-13, -4.616918432785520292E-15, 37.69999999999998863 ) ) ;
#331 = AXIS2_PLACEMENT_3D ( 'NONE', #91, #163, #321 ) ;
#332 = EDGE_CURVE ( 'NONE', #31, #231, #303, .T. ) ;
#333 = DIRECTION ( 'NONE',  ( 4.275831445896958607E-31, 1.000000000000000000, 1.224646799147353454E-16 ) ) ;
#334 = PLANE ( 'NONE',  #42 ) ;
#335 = AXIS2_PLACEMENT_3D ( 'NONE', #290, #104, #137 ) ;
#336 = ORIENTED_EDGE ( 'NONE', *, *, #209, .T. ) ;
#337 = CARTESIAN_POINT ( 'NONE',  ( 1.117274028429802674E-14, -3.918869757271530460E-16, 3.200000000000000178 ) ) ;
#338 = CARTESIAN_POINT ( 'NONE',  ( 1.323178959930974653E-13, -1.199999999999993294, 38.00000000000000000 ) ) ;
#339 = ORIENTED_EDGE ( 'NONE', *, *, #313, .T. ) ;
#340 = AXIS2_PLACEMENT_3D ( 'NONE', #105, #133, #208 ) ;
#341 = CARTESIAN_POINT ( 'NONE',  ( 0.6500000000000107914, 0.000000000000000000, 3.199999999999997957 ) ) ;
#342 = ORIENTED_EDGE ( 'NONE', *, *, #318, .T. ) ;
#343 = APPLICATION_CONTEXT ( 'automotive_design' ) ;
ENDSEC;
END-ISO-10303-21;
