ISO-10303-21;
HEADER;
FILE_DESCRIPTION (( 'STEP AP214' ),
    '1' );
FILE_NAME ('56992.step',
    '2024-04-04T09:56:00',
    ( '' ),
    ( '' ),
    'SwSTEP 2.0',
    'SolidWorks 2022',
    '' );
FILE_SCHEMA (( 'AUTOMOTIVE_DESIGN' ));
ENDSEC;

DATA;
#1 = CARTESIAN_POINT ( 'NONE',  ( 9.776147748760773395E-15, 0.000000000000000000, 2.799999999999999822 ) ) ;
#2 = EDGE_CURVE ( 'NONE', #267, #297, #255, .T. ) ;
#3 = AXIS2_PLACEMENT_3D ( 'NONE', #207, #44, #254 ) ;
#4 = DIRECTION ( 'NONE',  ( 0.000000000000000000, 0.000000000000000000, 1.000000000000000000 ) ) ;
#5 = CONICAL_SURFACE ( 'NONE', #106, 1.499999999999996669, 0.7853981633974472798 ) ;
#6 = ORIENTED_EDGE ( 'NONE', *, *, #342, .F. ) ;
#7 = DIRECTION ( 'NONE',  ( -4.275831445896958607E-31, -1.000000000000000000, -1.224646799147353207E-16 ) ) ;
#8 = ORIENTED_EDGE ( 'NONE', *, *, #92, .F. ) ;
#9 = CARTESIAN_POINT ( 'NONE',  ( 9.776147748760773395E-15, 0.000000000000000000, 2.799999999999999822 ) ) ;
#10 = DIRECTION ( 'NONE',  ( 4.275831445896958607E-31, 1.000000000000000000, 1.224646799147353207E-16 ) ) ;
#11 = AXIS2_PLACEMENT_3D ( 'NONE', #113, #200, #85 ) ;
#12 = ORIENTED_EDGE ( 'NONE', *, *, #92, .T. ) ;
#13 = CARTESIAN_POINT ( 'NONE',  ( 6.413747168845423897E-31, 1.499999999999996669, 1.836970198721025990E-16 ) ) ;
#14 = FACE_OUTER_BOUND ( 'NONE', #218, .T. ) ;
#15 = CIRCLE ( 'NONE', #82, 0.6500000000000000222 ) ;
#16 = DIRECTION ( 'NONE',  ( -3.491481338843133355E-15, 0.000000000000000000, -1.000000000000000000 ) ) ;
#17 = AXIS2_PLACEMENT_3D ( 'NONE', #61, #160, #321 ) ;
#18 = VERTEX_POINT ( 'NONE', #154 ) ;
#19 = FACE_OUTER_BOUND ( 'NONE', #201, .T. ) ;
#20 = LINE ( 'NONE', #213, #50 ) ;
#21 = CARTESIAN_POINT ( 'NONE',  ( 7.501447384110402940E-14, -1.500000000000001332, 37.69999999999999574 ) ) ;
#22 =( LENGTH_UNIT ( ) NAMED_UNIT ( * ) SI_UNIT ( .MILLI., .METRE. ) );
#23 = ADVANCED_FACE ( 'NONE', ( #69 ), #47, .F. ) ;
#24 = PRESENTATION_LAYER_ASSIGNMENT (  '', '', ( #181 ) ) ;
#25 = STYLED_ITEM ( 'NONE', ( #53 ), #45 ) ;
#26 = EDGE_CURVE ( 'NONE', #323, #330, #71, .T. ) ;
#27 = UNCERTAINTY_MEASURE_WITH_UNIT (LENGTH_MEASURE( 1.000000000000000082E-05 ), #33, 'distance_accuracy_value', 'NONE');
#28 = EDGE_CURVE ( 'NONE', #330, #232, #124, .T. ) ;
#29 = ORIENTED_EDGE ( 'NONE', *, *, #239, .F. ) ;
#30 = SURFACE_STYLE_USAGE ( .BOTH. , #66 ) ;
#31 = DIRECTION ( 'NONE',  ( 0.000000000000000000, 1.000000000000000000, 0.000000000000000000 ) ) ;
#32 = ORIENTED_EDGE ( 'NONE', *, *, #194, .T. ) ;
#33 =( LENGTH_UNIT ( ) NAMED_UNIT ( * ) SI_UNIT ( .MILLI., .METRE. ) );
#34 = AXIS2_PLACEMENT_3D ( 'NONE', #293, #87, #65 ) ;
#35 = CARTESIAN_POINT ( 'NONE',  ( 7.483077682123198979E-14, 1.499999999999992228, 37.69999999999999574 ) ) ;
#36 = ORIENTED_EDGE ( 'NONE', *, *, #214, .F. ) ;
#37 = CARTESIAN_POINT ( 'NONE',  ( 9.776147748760773395E-15, -0.6500000000000002442, 2.799999999999999822 ) ) ;
#38 = ORIENTED_EDGE ( 'NONE', *, *, #186, .T. ) ;
#39 = DIRECTION ( 'NONE',  ( 3.491481338843133355E-15, -1.224646799147353207E-16, 1.000000000000000000 ) ) ;
#40 = ORIENTED_EDGE ( 'NONE', *, *, #186, .F. ) ;
#41 = CIRCLE ( 'NONE', #174, 1.199999999999995737 ) ;
#42 = CONICAL_SURFACE ( 'NONE', #264, 0.6500000000000000222, 0.3450620389298191260 ) ;
#43 = ORIENTED_EDGE ( 'NONE', *, *, #308, .T. ) ;
#44 = DIRECTION ( 'NONE',  ( 3.491481338843133355E-15, -0.000000000000000000, 1.000000000000000000 ) ) ;
#45 = ADVANCED_BREP_SHAPE_REPRESENTATION ( '56992', ( #166, #56, #303 ), #240 ) ;
#46 = DIRECTION ( 'NONE',  ( 0.000000000000000000, 1.000000000000000000, 0.000000000000000000 ) ) ;
#47 = PLANE ( 'NONE',  #236 ) ;
#48 = PRODUCT_RELATED_PRODUCT_CATEGORY ( 'part', '', ( #52 ) ) ;
#49 = DIRECTION ( 'NONE',  ( -3.491481338843133355E-15, 1.224646799147353207E-16, -1.000000000000000000 ) ) ;
#50 = VECTOR ( 'NONE', #315, 1000.000000000000000 ) ;
#51 = EDGE_LOOP ( 'NONE', ( #326, #204, #148, #190 ) ) ;
#52 = PRODUCT ( '56992', '56992', '', ( #228 ) ) ;
#53 = PRESENTATION_STYLE_ASSIGNMENT (( #184 ) ) ;
#54 = EDGE_CURVE ( 'NONE', #18, #217, #15, .T. ) ;
#55 = VECTOR ( 'NONE', #327, 1000.000000000000114 ) ;
#56 = MANIFOLD_SOLID_BREP ( 'Corps-Déplacer/Copier1[2]', #251 ) ;
#57 = CARTESIAN_POINT ( 'NONE',  ( 1.321525686752125943E-13, 1.199999999999991296, 38.00000000000000000 ) ) ;
#58 = DIRECTION ( 'NONE',  ( 1.000000000000000000, 0.000000000000000000, -3.336006684570784088E-15 ) ) ;
#59 = UNCERTAINTY_MEASURE_WITH_UNIT (LENGTH_MEASURE( 1.000000000000000082E-05 ), #294, 'distance_accuracy_value', 'NONE');
#60 = FACE_OUTER_BOUND ( 'NONE', #51, .T. ) ;
#61 = CARTESIAN_POINT ( 'NONE',  ( 0.000000000000000000, 0.000000000000000000, 0.000000000000000000 ) ) ;
#62 = PRESENTATION_STYLE_ASSIGNMENT (( #30 ) ) ;
#63 = AXIS2_PLACEMENT_3D ( 'NONE', #150, #282, #210 ) ;
#64 = EDGE_LOOP ( 'NONE', ( #99, #8, #341, #169 ) ) ;
#65 = DIRECTION ( 'NONE',  ( 0.000000000000000000, 1.000000000000000000, 0.000000000000000000 ) ) ;
#66 = SURFACE_SIDE_STYLE ('',( #246 ) ) ;
#67 = ORIENTED_EDGE ( 'NONE', *, *, #295, .T. ) ;
#68 = PRODUCT_DEFINITION_FORMATION_WITH_SPECIFIED_SOURCE ( 'ANY', '', #52, .NOT_KNOWN. ) ;
#69 = FACE_OUTER_BOUND ( 'NONE', #245, .T. ) ;
#70 = FILL_AREA_STYLE ('',( #209 ) ) ;
#71 = CIRCLE ( 'NONE', #289, 1.499999999999996669 ) ;
#72 = PRESENTATION_STYLE_ASSIGNMENT (( #146 ) ) ;
#73 = PRODUCT_DEFINITION_SHAPE ( 'NONE', 'NONE',  #187 ) ;
#74 = DIRECTION ( 'NONE',  ( 3.491481338843133355E-15, -0.000000000000000000, 1.000000000000000000 ) ) ;
#75 = APPLICATION_PROTOCOL_DEFINITION ( 'draft international standard', 'automotive_design', 1998, #149 ) ;
#76 = CARTESIAN_POINT ( 'NONE',  ( 3.206873584422718626E-32, 0.6499999999999999112, 9.184850993605147205E-18 ) ) ;
#77 = AXIS2_PLACEMENT_3D ( 'NONE', #138, #216, #189 ) ;
#78 = FILL_AREA_STYLE_COLOUR ( '', #182 ) ;
#79 = DIRECTION ( 'NONE',  ( 3.491481338843133355E-15, -0.000000000000000000, 1.000000000000000000 ) ) ;
#80 = ORIENTED_EDGE ( 'NONE', *, *, #159, .F. ) ;
#81 =( NAMED_UNIT ( * ) PLANE_ANGLE_UNIT ( ) SI_UNIT ( $, .RADIAN. ) );
#82 = AXIS2_PLACEMENT_3D ( 'NONE', #205, #307, #46 ) ;
#83 = CONICAL_SURFACE ( 'NONE', #63, 0.6500000000000000222, 0.3450620389298191260 ) ;
#84 = ORIENTED_EDGE ( 'NONE', *, *, #54, .T. ) ;
#85 = DIRECTION ( 'NONE',  ( 4.275831445896958607E-31, 1.000000000000000000, 1.224646799147353454E-16 ) ) ;
#86 = EDGE_CURVE ( 'NONE', #217, #18, #269, .T. ) ;
#87 = DIRECTION ( 'NONE',  ( -3.491481338843133355E-15, 1.224646799147359124E-16, -1.000000000000000000 ) ) ;
#88 = EDGE_LOOP ( 'NONE', ( #6, #139 ) ) ;
#89 = DIRECTION ( 'NONE',  ( 0.000000000000000000, -1.000000000000000000, 0.000000000000000000 ) ) ;
#90 = EDGE_CURVE ( 'NONE', #330, #323, #276, .T. ) ;
#91 = ORIENTED_EDGE ( 'NONE', *, *, #317, .T. ) ;
#92 = EDGE_CURVE ( 'NONE', #114, #306, #41, .T. ) ;
#93 = CARTESIAN_POINT ( 'NONE',  ( 1.326762908760390423E-13, -4.653657836759941941E-15, 38.00000000000000000 ) ) ;
#94 = APPLICATION_CONTEXT ( 'automotive_design' ) ;
#95 = FACE_OUTER_BOUND ( 'NONE', #101, .T. ) ;
#96 = EDGE_LOOP ( 'NONE', ( #290, #188, #43, #40 ) ) ;
#97 = CARTESIAN_POINT ( 'NONE',  ( 1.803270716807786155E-14, -6.325022238459190932E-16, 5.164772604528029554 ) ) ;
#98 = AXIS2_PLACEMENT_3D ( 'NONE', #260, #105, #183 ) ;
#99 = ORIENTED_EDGE ( 'NONE', *, *, #295, .F. ) ;
#100 = SHAPE_DEFINITION_REPRESENTATION ( #73, #45 ) ;
#101 = EDGE_LOOP ( 'NONE', ( #131, #67, #242, #80 ) ) ;
#102 = CARTESIAN_POINT ( 'NONE',  ( 1.316288464743861212E-13, -4.616918432785521081E-15, 37.69999999999999574 ) ) ;
#103 = ADVANCED_FACE ( 'NONE', ( #19 ), #212, .T. ) ;
#104 = VECTOR ( 'NONE', #49, 1000.000000000000000 ) ;
#105 = DIRECTION ( 'NONE',  ( -3.491481338843133355E-15, 1.224646799147359124E-16, -1.000000000000000000 ) ) ;
#106 = AXIS2_PLACEMENT_3D ( 'NONE', #304, #127, #142 ) ;
#107 = CARTESIAN_POINT ( 'NONE',  ( 7.501447384110406727E-14, -1.499999999999996669, 5.164772604528029554 ) ) ;
#108 = ADVANCED_FACE ( 'NONE', ( #314 ), #158, .T. ) ;
#109 = VECTOR ( 'NONE', #140, 1000.000000000000000 ) ;
#110 = DIRECTION ( 'NONE',  ( 3.491481338843133355E-15, -0.000000000000000000, 1.000000000000000000 ) ) ;
#111 = CARTESIAN_POINT ( 'NONE',  ( 9.776147748760773395E-15, 0.000000000000000000, 2.799999999999999822 ) ) ;
#112 = ORIENTED_EDGE ( 'NONE', *, *, #86, .T. ) ;
#113 = CARTESIAN_POINT ( 'NONE',  ( 0.000000000000000000, 0.000000000000000000, 0.000000000000000000 ) ) ;
#114 = VERTEX_POINT ( 'NONE', #57 ) ;
#115 = LINE ( 'NONE', #331, #226 ) ;
#116 = ORIENTED_EDGE ( 'NONE', *, *, #2, .F. ) ;
#117 = DIRECTION ( 'NONE',  ( 3.491481338843133355E-15, -0.000000000000000000, 1.000000000000000000 ) ) ;
#118 = ADVANCED_FACE ( 'NONE', ( #275 ), #301, .T. ) ;
#119 = CYLINDRICAL_SURFACE ( 'NONE', #11, 1.499999999999996669 ) ;
#120 = COLOUR_RGB ( '',1.000000000000000000, 1.000000000000000000, 1.000000000000000000 ) ;
#121 = MECHANICAL_DESIGN_GEOMETRIC_PRESENTATION_REPRESENTATION (  '', ( #185 ), #223 ) ;
#122 = CARTESIAN_POINT ( 'NONE',  ( 9.776147748760773395E-15, 0.6499999999999996891, 2.799999999999999822 ) ) ;
#123 = EDGE_CURVE ( 'NONE', #217, #232, #115, .T. ) ;
#124 = LINE ( 'NONE', #13, #104 ) ;
#125 = PRODUCT_DEFINITION_CONTEXT ( 'detailed design', #149, 'design' ) ;
#126 = DIRECTION ( 'NONE',  ( -3.491481338843133355E-15, 1.224646799147353207E-16, -1.000000000000000000 ) ) ;
#127 = DIRECTION ( 'NONE',  ( -3.491481338843133355E-15, 1.224646799147359124E-16, -1.000000000000000000 ) ) ;
#128 = APPLICATION_PROTOCOL_DEFINITION ( 'draft international standard', 'automotive_design', 1998, #94 ) ;
#129 = VECTOR ( 'NONE', #253, 1000.000000000000000 ) ;
#130 = DIRECTION ( 'NONE',  ( -1.000000000000000000, 0.000000000000000000, 3.491481338843133355E-15 ) ) ;
#131 = ORIENTED_EDGE ( 'NONE', *, *, #194, .F. ) ;
#132 = DIRECTION ( 'NONE',  ( 1.000000000000000000, 0.000000000000000000, -3.336006684570784088E-15 ) ) ;
#133 = AXIS2_PLACEMENT_3D ( 'NONE', #9, #117, #231 ) ;
#134 =( NAMED_UNIT ( * ) PLANE_ANGLE_UNIT ( ) SI_UNIT ( $, .RADIAN. ) );
#135 = CARTESIAN_POINT ( 'NONE',  ( -0.6500000000000000222, 7.960204194457854641E-17, 2.269462870248037075E-15 ) ) ;
#136 = AXIS2_PLACEMENT_3D ( 'NONE', #93, #39, #89 ) ;
#137 =( NAMED_UNIT ( * ) SI_UNIT ( $, .STERADIAN. ) SOLID_ANGLE_UNIT ( ) );
#138 = CARTESIAN_POINT ( 'NONE',  ( 0.000000000000000000, 0.000000000000000000, 0.000000000000000000 ) ) ;
#139 = ORIENTED_EDGE ( 'NONE', *, *, #274, .F. ) ;
#140 = DIRECTION ( 'NONE',  ( 3.491481338843133355E-15, -0.000000000000000000, 1.000000000000000000 ) ) ;
#141 = CIRCLE ( 'NONE', #3, 0.6499999999999996891 ) ;
#142 = DIRECTION ( 'NONE',  ( 0.000000000000000000, 1.000000000000000000, 0.000000000000000000 ) ) ;
#143 = CYLINDRICAL_SURFACE ( 'NONE', #77, 1.499999999999996669 ) ;
#144 = ORIENTED_EDGE ( 'NONE', *, *, #325, .T. ) ;
#145 =( GEOMETRIC_REPRESENTATION_CONTEXT ( 3 ) GLOBAL_UNCERTAINTY_ASSIGNED_CONTEXT ( ( #161 ) ) GLOBAL_UNIT_ASSIGNED_CONTEXT ( ( #250, #224, #332 ) ) REPRESENTATION_CONTEXT ( 'NONE', 'WORKASPACE' ) );
#146 = SURFACE_STYLE_USAGE ( .BOTH. , #309 ) ;
#147 = ORIENTED_EDGE ( 'NONE', *, *, #214, .T. ) ;
#148 = ORIENTED_EDGE ( 'NONE', *, *, #28, .T. ) ;
#149 = APPLICATION_CONTEXT ( 'automotive_design' ) ;
#150 = CARTESIAN_POINT ( 'NONE',  ( 9.776147748760773395E-15, -3.429011037612588783E-16, 2.799999999999999822 ) ) ;
#151 = MECHANICAL_DESIGN_GEOMETRIC_PRESENTATION_REPRESENTATION (  '', ( #181 ), #145 ) ;
#152 = COLOUR_RGB ( '',1.000000000000000000, 1.000000000000000000, 1.000000000000000000 ) ;
#153 = ADVANCED_FACE ( 'NONE', ( #60 ), #143, .T. ) ;
#154 = CARTESIAN_POINT ( 'NONE',  ( 1.390442745841931747E-14, -0.6500000000000002442, 2.799999999999999822 ) ) ;
#155 = ADVANCED_FACE ( 'NONE', ( #170 ), #42, .T. ) ;
#156 = DIRECTION ( 'NONE',  ( 0.000000000000000000, -1.000000000000000000, 0.000000000000000000 ) ) ;
#157 = DIRECTION ( 'NONE',  ( 1.000000000000000000, 0.000000000000000000, -3.491481338843133355E-15 ) ) ;
#158 = CONICAL_SURFACE ( 'NONE', #34, 1.499999999999996669, 0.7853981633974472798 ) ;
#159 = EDGE_CURVE ( 'NONE', #114, #330, #243, .T. ) ;
#160 = DIRECTION ( 'NONE',  ( 3.491481338843133355E-15, -0.000000000000000000, 1.000000000000000000 ) ) ;
#161 = UNCERTAINTY_MEASURE_WITH_UNIT (LENGTH_MEASURE( 1.000000000000000082E-05 ), #250, 'distance_accuracy_value', 'NONE');
#162 = ORIENTED_EDGE ( 'NONE', *, *, #239, .T. ) ;
#163 = PLANE ( 'NONE',  #283 ) ;
#164 = ORIENTED_EDGE ( 'NONE', *, *, #257, .T. ) ;
#165 = CARTESIAN_POINT ( 'NONE',  ( 1.316288464743861212E-13, 1.499999999999992228, 37.69999999999999574 ) ) ;
#166 = MANIFOLD_SOLID_BREP ( 'Corps-Déplacer/Copier1[1]', #328 ) ;
#167 = VERTEX_POINT ( 'NONE', #322 ) ;
#168 = LINE ( 'NONE', #37, #55 ) ;
#169 = ORIENTED_EDGE ( 'NONE', *, *, #26, .F. ) ;
#170 = FACE_OUTER_BOUND ( 'NONE', #96, .T. ) ;
#171 = ORIENTED_EDGE ( 'NONE', *, *, #317, .F. ) ;
#172 = DIRECTION ( 'NONE',  ( 3.327098416510788004E-15, 0.3382550599108818945, 0.9410544694355825746 ) ) ;
#173 = CARTESIAN_POINT ( 'NONE',  ( 9.776147748760773395E-15, -3.429011037612588783E-16, 2.799999999999999822 ) ) ;
#174 = AXIS2_PLACEMENT_3D ( 'NONE', #285, #233, #156 ) ;
#175 = ORIENTED_EDGE ( 'NONE', *, *, #342, .T. ) ;
#176 = UNCERTAINTY_MEASURE_WITH_UNIT (LENGTH_MEASURE( 1.000000000000000082E-05 ), #22, 'distance_accuracy_value', 'NONE');
#177 = ORIENTED_EDGE ( 'NONE', *, *, #28, .F. ) ;
#178 = PRESENTATION_LAYER_ASSIGNMENT (  '', '', ( #25 ) ) ;
#179 = DIRECTION ( 'NONE',  ( -3.491481338843133355E-15, 1.224646799147353207E-16, -1.000000000000000000 ) ) ;
#180 = ADVANCED_FACE ( 'NONE', ( #219 ), #163, .T. ) ;
#181 = STYLED_ITEM ( 'NONE', ( #72 ), #56 ) ;
#182 = COLOUR_RGB ( '',1.000000000000000000, 1.000000000000000000, 1.000000000000000000 ) ;
#183 = DIRECTION ( 'NONE',  ( 3.819167204710538499E-14, -1.000000000000000000, 0.000000000000000000 ) ) ;
#184 = SURFACE_STYLE_USAGE ( .BOTH. , #316 ) ;
#185 = STYLED_ITEM ( 'NONE', ( #62 ), #166 ) ;
#186 = EDGE_CURVE ( 'NONE', #18, #265, #168, .T. ) ;
#187 = PRODUCT_DEFINITION ( 'UNKNOWN', '', #68, #125 ) ;
#188 = ORIENTED_EDGE ( 'NONE', *, *, #123, .T. ) ;
#189 = DIRECTION ( 'NONE',  ( 4.275831445896958607E-31, 1.000000000000000000, 1.224646799147353454E-16 ) ) ;
#190 = ORIENTED_EDGE ( 'NONE', *, *, #325, .F. ) ;
#191 = LINE ( 'NONE', #292, #109 ) ;
#192 = DIRECTION ( 'NONE',  ( 0.000000000000000000, -1.000000000000000000, 0.000000000000000000 ) ) ;
#193 = FACE_OUTER_BOUND ( 'NONE', #334, .T. ) ;
#194 = EDGE_CURVE ( 'NONE', #306, #114, #313, .T. ) ;
#195 = ORIENTED_EDGE ( 'NONE', *, *, #54, .F. ) ;
#196 = CARTESIAN_POINT ( 'NONE',  ( 1.403607698932765744E-14, 0.6499999999999996891, 2.799999999999999822 ) ) ;
#197 = CIRCLE ( 'NONE', #17, 0.6499999999999999112 ) ;
#198 = CARTESIAN_POINT ( 'NONE',  ( 1.803270716807786155E-14, -6.325022238459190932E-16, 5.164772604528029554 ) ) ;
#199 = EDGE_LOOP ( 'NONE', ( #258, #164, #221, #177 ) ) ;
#200 = DIRECTION ( 'NONE',  ( -3.491481338843133355E-15, 1.224646799147353207E-16, -1.000000000000000000 ) ) ;
#201 = EDGE_LOOP ( 'NONE', ( #175, #302, #29, #36 ) ) ;
#202 =( GEOMETRIC_REPRESENTATION_CONTEXT ( 3 ) GLOBAL_UNCERTAINTY_ASSIGNED_CONTEXT ( ( #176 ) ) GLOBAL_UNIT_ASSIGNED_CONTEXT ( ( #22, #134, #208 ) ) REPRESENTATION_CONTEXT ( 'NONE', 'WORKASPACE' ) );
#203 = ORIENTED_EDGE ( 'NONE', *, *, #274, .T. ) ;
#204 = ORIENTED_EDGE ( 'NONE', *, *, #26, .T. ) ;
#205 = CARTESIAN_POINT ( 'NONE',  ( 9.776147748760773395E-15, -3.429011037612588783E-16, 2.799999999999999822 ) ) ;
#206 = ADVANCED_FACE ( 'NONE', ( #248 ), #119, .T. ) ;
#207 = CARTESIAN_POINT ( 'NONE',  ( 9.776147748760773395E-15, 0.000000000000000000, 2.799999999999999822 ) ) ;
#208 =( NAMED_UNIT ( * ) SI_UNIT ( $, .STERADIAN. ) SOLID_ANGLE_UNIT ( ) );
#209 = FILL_AREA_STYLE_COLOUR ( '', #120 ) ;
#210 = DIRECTION ( 'NONE',  ( 0.000000000000000000, -1.000000000000000000, 0.000000000000000000 ) ) ;
#211 = AXIS2_PLACEMENT_3D ( 'NONE', #76, #110, #319 ) ;
#212 = CYLINDRICAL_SURFACE ( 'NONE', #286, 0.6499999999999998002 ) ;
#213 = CARTESIAN_POINT ( 'NONE',  ( 1.318125434942582113E-13, -1.500000000000001332, 37.69999999999999574 ) ) ;
#214 = EDGE_CURVE ( 'NONE', #167, #284, #191, .T. ) ;
#215 = EDGE_LOOP ( 'NONE', ( #84, #112 ) ) ;
#216 = DIRECTION ( 'NONE',  ( -3.491481338843133355E-15, 1.224646799147353207E-16, -1.000000000000000000 ) ) ;
#217 = VERTEX_POINT ( 'NONE', #196 ) ;
#218 = EDGE_LOOP ( 'NONE', ( #225, #195, #38, #144 ) ) ;
#219 = FACE_OUTER_BOUND ( 'NONE', #215, .T. ) ;
#220 = CARTESIAN_POINT ( 'NONE',  ( 1.323178959930974906E-13, -1.200000000000000400, 38.00000000000000000 ) ) ;
#221 = ORIENTED_EDGE ( 'NONE', *, *, #308, .F. ) ;
#222 = CARTESIAN_POINT ( 'NONE',  ( 1.803270716807786155E-14, 1.499999999999995337, 5.164772604528029554 ) ) ;
#223 =( GEOMETRIC_REPRESENTATION_CONTEXT ( 3 ) GLOBAL_UNCERTAINTY_ASSIGNED_CONTEXT ( ( #27 ) ) GLOBAL_UNIT_ASSIGNED_CONTEXT ( ( #33, #81, #137 ) ) REPRESENTATION_CONTEXT ( 'NONE', 'WORKASPACE' ) );
#224 =( NAMED_UNIT ( * ) PLANE_ANGLE_UNIT ( ) SI_UNIT ( $, .RADIAN. ) );
#225 = ORIENTED_EDGE ( 'NONE', *, *, #123, .F. ) ;
#226 = VECTOR ( 'NONE', #172, 1000.000000000000114 ) ;
#227 = CIRCLE ( 'NONE', #270, 1.499999999999996003 ) ;
#228 = PRODUCT_CONTEXT ( 'NONE', #94, 'mechanical' ) ;
#229 = DIRECTION ( 'NONE',  ( -3.491481338843133355E-15, 1.224646799147359124E-16, -1.000000000000000000 ) ) ;
#230 = LINE ( 'NONE', #340, #237 ) ;
#231 = DIRECTION ( 'NONE',  ( 1.000000000000000000, 0.000000000000000000, -3.336006684570784482E-15 ) ) ;
#232 = VERTEX_POINT ( 'NONE', #222 ) ;
#233 = DIRECTION ( 'NONE',  ( 3.491481338843133355E-15, -1.224646799147353207E-16, 1.000000000000000000 ) ) ;
#234 = PLANE ( 'NONE',  #211 ) ;
#235 = CARTESIAN_POINT ( 'NONE',  ( 0.000000000000000000, 0.000000000000000000, 0.000000000000000000 ) ) ;
#236 = AXIS2_PLACEMENT_3D ( 'NONE', #122, #16, #130 ) ;
#237 = VECTOR ( 'NONE', #179, 1000.000000000000000 ) ;
#238 = CARTESIAN_POINT ( 'NONE',  ( 0.000000000000000000, 0.000000000000000000, 0.000000000000000000 ) ) ;
#239 = EDGE_CURVE ( 'NONE', #284, #297, #141, .T. ) ;
#240 =( GEOMETRIC_REPRESENTATION_CONTEXT ( 3 ) GLOBAL_UNCERTAINTY_ASSIGNED_CONTEXT ( ( #59 ) ) GLOBAL_UNIT_ASSIGNED_CONTEXT ( ( #294, #288, #280 ) ) REPRESENTATION_CONTEXT ( 'NONE', 'WORKASPACE' ) );
#241 = CARTESIAN_POINT ( 'NONE',  ( 9.776147748760773395E-15, -3.429011037612588783E-16, 2.799999999999999822 ) ) ;
#242 = ORIENTED_EDGE ( 'NONE', *, *, #90, .F. ) ;
#243 = LINE ( 'NONE', #165, #244 ) ;
#244 = VECTOR ( 'NONE', #291, 999.9999999999998863 ) ;
#245 = EDGE_LOOP ( 'NONE', ( #162, #91 ) ) ;
#246 = SURFACE_STYLE_FILL_AREA ( #320 ) ;
#247 = DIRECTION ( 'NONE',  ( -3.491481338843133355E-15, 1.224646799147353207E-16, -1.000000000000000000 ) ) ;
#248 = FACE_OUTER_BOUND ( 'NONE', #199, .T. ) ;
#249 = ADVANCED_FACE ( 'NONE', ( #14 ), #83, .T. ) ;
#250 =( LENGTH_UNIT ( ) NAMED_UNIT ( * ) SI_UNIT ( .MILLI., .METRE. ) );
#251 = CLOSED_SHELL ( 'NONE', ( #103, #335, #23, #263 ) ) ;
#252 = AXIS2_PLACEMENT_3D ( 'NONE', #238, #79, #157 ) ;
#253 = DIRECTION ( 'NONE',  ( 3.491481338843133355E-15, -0.000000000000000000, 1.000000000000000000 ) ) ;
#254 = DIRECTION ( 'NONE',  ( 1.000000000000000000, 0.000000000000000000, -3.336006684570784482E-15 ) ) ;
#255 = LINE ( 'NONE', #279, #129 ) ;
#256 = CIRCLE ( 'NONE', #252, 0.6499999999999999112 ) ;
#257 = EDGE_CURVE ( 'NONE', #323, #265, #230, .T. ) ;
#258 = ORIENTED_EDGE ( 'NONE', *, *, #90, .T. ) ;
#259 = FACE_OUTER_BOUND ( 'NONE', #88, .T. ) ;
#260 = CARTESIAN_POINT ( 'NONE',  ( 1.316288464743861212E-13, -4.616918432785521081E-15, 37.69999999999999574 ) ) ;
#261 = CARTESIAN_POINT ( 'NONE',  ( 0.6500000000000093481, 0.000000000000000000, 2.799999999999997602 ) ) ;
#262 = FILL_AREA_STYLE ('',( #78 ) ) ;
#263 = ADVANCED_FACE ( 'NONE', ( #259 ), #234, .F. ) ;
#264 = AXIS2_PLACEMENT_3D ( 'NONE', #241, #324, #192 ) ;
#265 = VERTEX_POINT ( 'NONE', #107 ) ;
#266 = CARTESIAN_POINT ( 'NONE',  ( 9.776147748760773395E-15, 0.6499999999999996891, 2.799999999999999822 ) ) ;
#267 = VERTEX_POINT ( 'NONE', #135 ) ;
#268 = FILL_AREA_STYLE_COLOUR ( '', #152 ) ;
#269 = CIRCLE ( 'NONE', #311, 0.6500000000000000222 ) ;
#270 = AXIS2_PLACEMENT_3D ( 'NONE', #198, #300, #31 ) ;
#271 = CYLINDRICAL_SURFACE ( 'NONE', #329, 0.6499999999999998002 ) ;
#272 = DIRECTION ( 'NONE',  ( 3.491481338843133355E-15, -1.224646799147353207E-16, 1.000000000000000000 ) ) ;
#273 = CARTESIAN_POINT ( 'NONE',  ( -0.6499999999999899192, 7.960204194457791779E-17, 2.800000000000002043 ) ) ;
#274 = EDGE_CURVE ( 'NONE', #267, #167, #256, .T. ) ;
#275 = FACE_OUTER_BOUND ( 'NONE', #281, .T. ) ;
#276 = CIRCLE ( 'NONE', #98, 1.499999999999996669 ) ;
#277 = AXIS2_PLACEMENT_3D ( 'NONE', #97, #299, #333 ) ;
#278 = SURFACE_STYLE_FILL_AREA ( #70 ) ;
#279 = CARTESIAN_POINT ( 'NONE',  ( -0.6499999999999900302, 7.960204194457793012E-17, 2.800000000000002043 ) ) ;
#280 =( NAMED_UNIT ( * ) SI_UNIT ( $, .STERADIAN. ) SOLID_ANGLE_UNIT ( ) );
#281 = EDGE_LOOP ( 'NONE', ( #12, #32 ) ) ;
#282 = DIRECTION ( 'NONE',  ( 3.491481338843133355E-15, -1.224646799147353207E-16, 1.000000000000000000 ) ) ;
#283 = AXIS2_PLACEMENT_3D ( 'NONE', #266, #247, #10 ) ;
#284 = VERTEX_POINT ( 'NONE', #261 ) ;
#285 = CARTESIAN_POINT ( 'NONE',  ( 1.326762908760390423E-13, -4.653657836759941941E-15, 38.00000000000000000 ) ) ;
#286 = AXIS2_PLACEMENT_3D ( 'NONE', #1, #74, #132 ) ;
#287 = PRESENTATION_LAYER_ASSIGNMENT (  '', '', ( #185 ) ) ;
#288 =( NAMED_UNIT ( * ) PLANE_ANGLE_UNIT ( ) SI_UNIT ( $, .RADIAN. ) );
#289 = AXIS2_PLACEMENT_3D ( 'NONE', #102, #229, #339 ) ;
#290 = ORIENTED_EDGE ( 'NONE', *, *, #86, .F. ) ;
#291 = DIRECTION ( 'NONE',  ( -2.468850131082267710E-15, 0.7071067811865469066, -0.7071067811865482389 ) ) ;
#292 = CARTESIAN_POINT ( 'NONE',  ( 0.6500000000000094591, 0.000000000000000000, 2.799999999999997602 ) ) ;
#293 = CARTESIAN_POINT ( 'NONE',  ( 1.316288464743861212E-13, -4.616918432785521081E-15, 37.69999999999999574 ) ) ;
#294 =( LENGTH_UNIT ( ) NAMED_UNIT ( * ) SI_UNIT ( .MILLI., .METRE. ) );
#295 = EDGE_CURVE ( 'NONE', #306, #323, #20, .T. ) ;
#296 = CIRCLE ( 'NONE', #133, 0.6499999999999996891 ) ;
#297 = VERTEX_POINT ( 'NONE', #273 ) ;
#298 = CARTESIAN_POINT ( 'NONE',  ( 1.326762908760390423E-13, -4.653657836759941941E-15, 38.00000000000000000 ) ) ;
#299 = DIRECTION ( 'NONE',  ( -3.491481338843133355E-15, 1.224646799147353207E-16, -1.000000000000000000 ) ) ;
#300 = DIRECTION ( 'NONE',  ( -3.491481338843133355E-15, 1.224646799147353207E-16, -1.000000000000000000 ) ) ;
#301 = PLANE ( 'NONE',  #305 ) ;
#302 = ORIENTED_EDGE ( 'NONE', *, *, #2, .T. ) ;
#303 = AXIS2_PLACEMENT_3D ( 'NONE', #235, #4, #338 ) ;
#304 = CARTESIAN_POINT ( 'NONE',  ( 1.316288464743861212E-13, -4.616918432785521081E-15, 37.69999999999999574 ) ) ;
#305 = AXIS2_PLACEMENT_3D ( 'NONE', #298, #272, #7 ) ;
#306 = VERTEX_POINT ( 'NONE', #220 ) ;
#307 = DIRECTION ( 'NONE',  ( -3.491481338843133355E-15, 1.224646799147353207E-16, -1.000000000000000000 ) ) ;
#308 = EDGE_CURVE ( 'NONE', #232, #265, #337, .T. ) ;
#309 = SURFACE_SIDE_STYLE ('',( #278 ) ) ;
#310 = MECHANICAL_DESIGN_GEOMETRIC_PRESENTATION_REPRESENTATION (  '', ( #25 ), #202 ) ;
#311 = AXIS2_PLACEMENT_3D ( 'NONE', #173, #126, #336 ) ;
#312 = ADVANCED_FACE ( 'NONE', ( #95 ), #5, .T. ) ;
#313 = CIRCLE ( 'NONE', #136, 1.199999999999995737 ) ;
#314 = FACE_OUTER_BOUND ( 'NONE', #64, .T. ) ;
#315 = DIRECTION ( 'NONE',  ( -2.382254525458719047E-15, -0.7071067811865466846, -0.7071067811865483499 ) ) ;
#316 = SURFACE_SIDE_STYLE ('',( #343 ) ) ;
#317 = EDGE_CURVE ( 'NONE', #297, #284, #296, .T. ) ;
#318 = DIRECTION ( 'NONE',  ( 3.491481338843133355E-15, -0.000000000000000000, 1.000000000000000000 ) ) ;
#319 = DIRECTION ( 'NONE',  ( 1.000000000000000000, 0.000000000000000000, -3.491481338843133355E-15 ) ) ;
#320 = FILL_AREA_STYLE ('',( #268 ) ) ;
#321 = DIRECTION ( 'NONE',  ( 1.000000000000000000, 0.000000000000000000, -3.491481338843133355E-15 ) ) ;
#322 = CARTESIAN_POINT ( 'NONE',  ( 0.6499999999999999112, 0.000000000000000000, -2.269462870248036287E-15 ) ) ;
#323 = VERTEX_POINT ( 'NONE', #21 ) ;
#324 = DIRECTION ( 'NONE',  ( 3.491481338843133355E-15, -1.224646799147353207E-16, 1.000000000000000000 ) ) ;
#325 = EDGE_CURVE ( 'NONE', #265, #232, #227, .T. ) ;
#326 = ORIENTED_EDGE ( 'NONE', *, *, #257, .F. ) ;
#327 = DIRECTION ( 'NONE',  ( 3.285674118869261421E-15, -0.3382550599108820610, 0.9410544694355824635 ) ) ;
#328 = CLOSED_SHELL ( 'NONE', ( #312, #155, #206, #180, #118, #153, #249, #108 ) ) ;
#329 = AXIS2_PLACEMENT_3D ( 'NONE', #111, #318, #58 ) ;
#330 = VERTEX_POINT ( 'NONE', #35 ) ;
#331 = CARTESIAN_POINT ( 'NONE',  ( 9.855749790705350610E-15, 0.6499999999999996891, 2.799999999999999822 ) ) ;
#332 =( NAMED_UNIT ( * ) SI_UNIT ( $, .STERADIAN. ) SOLID_ANGLE_UNIT ( ) );
#333 = DIRECTION ( 'NONE',  ( 0.000000000000000000, 1.000000000000000000, 0.000000000000000000 ) ) ;
#334 = EDGE_LOOP ( 'NONE', ( #116, #203, #147, #171 ) ) ;
#335 = ADVANCED_FACE ( 'NONE', ( #193 ), #271, .T. ) ;
#336 = DIRECTION ( 'NONE',  ( 0.000000000000000000, 1.000000000000000000, 0.000000000000000000 ) ) ;
#337 = CIRCLE ( 'NONE', #277, 1.499999999999996003 ) ;
#338 = DIRECTION ( 'NONE',  ( 1.000000000000000000, 0.000000000000000000, 0.000000000000000000 ) ) ;
#339 = DIRECTION ( 'NONE',  ( -3.730349362740525976E-14, -1.000000000000000000, 0.000000000000000000 ) ) ;
#340 = CARTESIAN_POINT ( 'NONE',  ( 1.836970198721019580E-16, -1.499999999999996669, -1.836970198721032153E-16 ) ) ;
#341 = ORIENTED_EDGE ( 'NONE', *, *, #159, .T. ) ;
#342 = EDGE_CURVE ( 'NONE', #167, #267, #197, .T. ) ;
#343 = SURFACE_STYLE_FILL_AREA ( #262 ) ;
ENDSEC;
END-ISO-10303-21;
