ISO-10303-21;
HEADER;
FILE_DESCRIPTION (( 'STEP AP214' ),
    '1' );
FILE_NAME ('56991.step',
    '2024-04-04T09:55:59',
    ( '' ),
    ( '' ),
    'SwSTEP 2.0',
    'SolidWorks 2022',
    '' );
FILE_SCHEMA (( 'AUTOMOTIVE_DESIGN' ));
ENDSEC;

DATA;
#1 = CARTESIAN_POINT ( 'NONE',  ( -0.4999999999999911182, 6.123233995736762338E-17, 2.450000000000001954 ) ) ;
#2 = AXIS2_PLACEMENT_3D ( 'NONE', #316, #292, #340 ) ;
#3 = EDGE_CURVE ( 'NONE', #247, #19, #231, .T. ) ;
#4 = EDGE_CURVE ( 'NONE', #272, #297, #166, .T. ) ;
#5 = ORIENTED_EDGE ( 'NONE', *, *, #251, .T. ) ;
#6 = VERTEX_POINT ( 'NONE', #116 ) ;
#7 = ORIENTED_EDGE ( 'NONE', *, *, #159, .T. ) ;
#8 = PRESENTATION_LAYER_ASSIGNMENT (  '', '', ( #157 ) ) ;
#9 = DIRECTION ( 'NONE',  ( 3.491481338843133355E-15, -0.000000000000000000, 1.000000000000000000 ) ) ;
#10 = CARTESIAN_POINT ( 'NONE',  ( 8.554129280165678298E-15, 0.000000000000000000, 2.450000000000000178 ) ) ;
#11 = CARTESIAN_POINT ( 'NONE',  ( 8.554129280165678298E-15, -0.5000000000000001110, 2.450000000000000178 ) ) ;
#12 = CIRCLE ( 'NONE', #21, 0.4999999999999998890 ) ;
#13 = ORIENTED_EDGE ( 'NONE', *, *, #60, .F. ) ;
#14 = DIRECTION ( 'NONE',  ( 3.819167204710538499E-14, -1.000000000000000000, 0.000000000000000000 ) ) ;
#15 = APPLICATION_CONTEXT ( 'automotive_design' ) ;
#16 = DIRECTION ( 'NONE',  ( 0.000000000000000000, 1.000000000000000000, 0.000000000000000000 ) ) ;
#17 =( NAMED_UNIT ( * ) PLANE_ANGLE_UNIT ( ) SI_UNIT ( $, .RADIAN. ) );
#18 = ADVANCED_FACE ( 'NONE', ( #114 ), #168, .T. ) ;
#19 = VERTEX_POINT ( 'NONE', #276 ) ;
#20 = AXIS2_PLACEMENT_3D ( 'NONE', #227, #46, #173 ) ;
#21 = AXIS2_PLACEMENT_3D ( 'NONE', #47, #9, #256 ) ;
#22 =( NAMED_UNIT ( * ) SI_UNIT ( $, .STERADIAN. ) SOLID_ANGLE_UNIT ( ) );
#23 = CIRCLE ( 'NONE', #218, 1.199999999999992406 ) ;
#24 = DIRECTION ( 'NONE',  ( -3.491481338843133355E-15, 1.224646799147353207E-16, -1.000000000000000000 ) ) ;
#25 = ADVANCED_FACE ( 'NONE', ( #284 ), #68, .F. ) ;
#26 = LINE ( 'NONE', #243, #138 ) ;
#27 = ADVANCED_FACE ( 'NONE', ( #170 ), #30, .T. ) ;
#28 = DIRECTION ( 'NONE',  ( 1.000000000000000000, 0.000000000000000000, 0.000000000000000000 ) ) ;
#29 = EDGE_LOOP ( 'NONE', ( #219, #299, #84, #302 ) ) ;
#30 = CONICAL_SURFACE ( 'NONE', #164, 1.499999999999996669, 0.7853981633974530530 ) ;
#31 = PRODUCT ( '56991', '56991', '', ( #244 ) ) ;
#32 = VERTEX_POINT ( 'NONE', #308 ) ;
#33 = APPLICATION_CONTEXT ( 'automotive_design' ) ;
#34 = EDGE_LOOP ( 'NONE', ( #13, #5, #163, #65 ) ) ;
#35 = ORIENTED_EDGE ( 'NONE', *, *, #87, .F. ) ;
#36 = CLOSED_SHELL ( 'NONE', ( #241, #18, #86, #25 ) ) ;
#37 = AXIS2_PLACEMENT_3D ( 'NONE', #96, #202, #69 ) ;
#38 = UNCERTAINTY_MEASURE_WITH_UNIT (LENGTH_MEASURE( 1.000000000000000082E-05 ), #342, 'distance_accuracy_value', 'NONE');
#39 = CARTESIAN_POINT ( 'NONE',  ( 1.068957861474246521E-32, 0.4999999999999998890, 3.061616997868402816E-18 ) ) ;
#40 =( NAMED_UNIT ( * ) PLANE_ANGLE_UNIT ( ) SI_UNIT ( $, .RADIAN. ) );
#41 = FACE_OUTER_BOUND ( 'NONE', #249, .T. ) ;
#42 = SURFACE_SIDE_STYLE ('',( #143 ) ) ;
#43 = AXIS2_PLACEMENT_3D ( 'NONE', #204, #287, #49 ) ;
#44 = DIRECTION ( 'NONE',  ( -3.491481338843133355E-15, 1.224646799147359124E-16, -1.000000000000000000 ) ) ;
#45 = CARTESIAN_POINT ( 'NONE',  ( 1.316288464743861212E-13, -4.616918432785521081E-15, 37.69999999999999574 ) ) ;
#46 = DIRECTION ( 'NONE',  ( 3.491481338843133355E-15, -0.000000000000000000, 1.000000000000000000 ) ) ;
#47 = CARTESIAN_POINT ( 'NONE',  ( 0.000000000000000000, 0.000000000000000000, 0.000000000000000000 ) ) ;
#48 =( GEOMETRIC_REPRESENTATION_CONTEXT ( 3 ) GLOBAL_UNCERTAINTY_ASSIGNED_CONTEXT ( ( #62 ) ) GLOBAL_UNIT_ASSIGNED_CONTEXT ( ( #75, #264, #22 ) ) REPRESENTATION_CONTEXT ( 'NONE', 'WORKASPACE' ) );
#49 = DIRECTION ( 'NONE',  ( 1.000000000000000000, 0.000000000000000000, -3.469446951953616555E-15 ) ) ;
#50 = SURFACE_SIDE_STYLE ('',( #209 ) ) ;
#51 = DIRECTION ( 'NONE',  ( 3.491481338843133355E-15, -0.000000000000000000, 1.000000000000000000 ) ) ;
#52 = FILL_AREA_STYLE_COLOUR ( '', #273 ) ;
#53 = ADVANCED_FACE ( 'NONE', ( #41 ), #245, .T. ) ;
#54 = LINE ( 'NONE', #343, #104 ) ;
#55 = ORIENTED_EDGE ( 'NONE', *, *, #223, .T. ) ;
#56 = VECTOR ( 'NONE', #51, 1000.000000000000000 ) ;
#57 = AXIS2_PLACEMENT_3D ( 'NONE', #282, #121, #122 ) ;
#58 = ORIENTED_EDGE ( 'NONE', *, *, #309, .T. ) ;
#59 = CONICAL_SURFACE ( 'NONE', #2, 0.4999999999999997780, 0.3450620389298191260 ) ;
#60 = EDGE_CURVE ( 'NONE', #6, #32, #180, .T. ) ;
#61 = DIRECTION ( 'NONE',  ( 3.491481338843133355E-15, -0.000000000000000000, 1.000000000000000000 ) ) ;
#62 = UNCERTAINTY_MEASURE_WITH_UNIT (LENGTH_MEASURE( 1.000000000000000082E-05 ), #75, 'distance_accuracy_value', 'NONE');
#63 = CARTESIAN_POINT ( 'NONE',  ( 1.316288464743861212E-13, 1.499999999999992228, 37.69999999999999574 ) ) ;
#64 = SURFACE_STYLE_USAGE ( .BOTH. , #42 ) ;
#65 = ORIENTED_EDGE ( 'NONE', *, *, #334, .F. ) ;
#66 =( LENGTH_UNIT ( ) NAMED_UNIT ( * ) SI_UNIT ( .MILLI., .METRE. ) );
#67 =( GEOMETRIC_REPRESENTATION_CONTEXT ( 3 ) GLOBAL_UNCERTAINTY_ASSIGNED_CONTEXT ( ( #38 ) ) GLOBAL_UNIT_ASSIGNED_CONTEXT ( ( #342, #293, #136 ) ) REPRESENTATION_CONTEXT ( 'NONE', 'WORKASPACE' ) );
#68 = PLANE ( 'NONE',  #189 ) ;
#69 = DIRECTION ( 'NONE',  ( -1.000000000000000000, 0.000000000000000000, 3.491481338843133355E-15 ) ) ;
#70 = FILL_AREA_STYLE_COLOUR ( '', #106 ) ;
#71 = FACE_OUTER_BOUND ( 'NONE', #85, .T. ) ;
#72 = AXIS2_PLACEMENT_3D ( 'NONE', #74, #99, #235 ) ;
#73 = DIRECTION ( 'NONE',  ( 1.000000000000000000, 0.000000000000000000, -3.469446951953618133E-15 ) ) ;
#74 = CARTESIAN_POINT ( 'NONE',  ( 8.554129280165678298E-15, 0.4999999999999994449, 2.450000000000000178 ) ) ;
#75 =( LENGTH_UNIT ( ) NAMED_UNIT ( * ) SI_UNIT ( .MILLI., .METRE. ) );
#76 = EDGE_CURVE ( 'NONE', #32, #6, #224, .T. ) ;
#77 = CIRCLE ( 'NONE', #298, 0.4999999999999994449 ) ;
#78 = DIRECTION ( 'NONE',  ( 1.000000000000000000, 0.000000000000000000, -3.469446951953618133E-15 ) ) ;
#79 = PRODUCT_DEFINITION_FORMATION_WITH_SPECIFIED_SOURCE ( 'ANY', '', #31, .NOT_KNOWN. ) ;
#80 = CARTESIAN_POINT ( 'NONE',  ( 1.326762908760390423E-13, -4.653657836759941941E-15, 38.00000000000000000 ) ) ;
#81 = ORIENTED_EDGE ( 'NONE', *, *, #112, .T. ) ;
#82 = ORIENTED_EDGE ( 'NONE', *, *, #76, .T. ) ;
#83 = VECTOR ( 'NONE', #105, 1000.000000000000000 ) ;
#84 = ORIENTED_EDGE ( 'NONE', *, *, #300, .F. ) ;
#85 = EDGE_LOOP ( 'NONE', ( #333, #248, #221, #217 ) ) ;
#86 = ADVANCED_FACE ( 'NONE', ( #278 ), #232, .F. ) ;
#87 = EDGE_CURVE ( 'NONE', #19, #247, #12, .T. ) ;
#88 = UNCERTAINTY_MEASURE_WITH_UNIT (LENGTH_MEASURE( 1.000000000000000082E-05 ), #331, 'distance_accuracy_value', 'NONE');
#89 = ORIENTED_EDGE ( 'NONE', *, *, #134, .T. ) ;
#90 = AXIS2_PLACEMENT_3D ( 'NONE', #237, #261, #208 ) ;
#91 = ORIENTED_EDGE ( 'NONE', *, *, #250, .F. ) ;
#92 = CYLINDRICAL_SURFACE ( 'NONE', #306, 1.499999999999996669 ) ;
#93 = VERTEX_POINT ( 'NONE', #225 ) ;
#94 = DIRECTION ( 'NONE',  ( -3.491481338843133355E-15, 1.224646799147353207E-16, -1.000000000000000000 ) ) ;
#95 = LINE ( 'NONE', #11, #301 ) ;
#96 = CARTESIAN_POINT ( 'NONE',  ( 8.554129280165678298E-15, 0.4999999999999994449, 2.450000000000000178 ) ) ;
#97 = DIRECTION ( 'NONE',  ( 0.000000000000000000, 1.000000000000000000, 0.000000000000000000 ) ) ;
#98 = CARTESIAN_POINT ( 'NONE',  ( 1.826772859700932042E-14, -6.407456658907021581E-16, 5.232085417091802526 ) ) ;
#99 = DIRECTION ( 'NONE',  ( -3.491481338843133355E-15, 1.224646799147353207E-16, -1.000000000000000000 ) ) ;
#100 = FILL_AREA_STYLE ('',( #52 ) ) ;
#101 = DIRECTION ( 'NONE',  ( -3.491481338843133355E-15, 1.224646799147359124E-16, -1.000000000000000000 ) ) ;
#102 = DIRECTION ( 'NONE',  ( -3.491481338843133355E-15, 1.224646799147353207E-16, -1.000000000000000000 ) ) ;
#103 = VECTOR ( 'NONE', #305, 1000.000000000000000 ) ;
#104 = VECTOR ( 'NONE', #102, 1000.000000000000000 ) ;
#105 = DIRECTION ( 'NONE',  ( 3.491481338843133355E-15, -0.000000000000000000, 1.000000000000000000 ) ) ;
#106 = COLOUR_RGB ( '',1.000000000000000000, 1.000000000000000000, 1.000000000000000000 ) ;
#107 = ORIENTED_EDGE ( 'NONE', *, *, #251, .F. ) ;
#108 = CARTESIAN_POINT ( 'NONE',  ( 0.000000000000000000, 0.000000000000000000, 0.000000000000000000 ) ) ;
#109 = VERTEX_POINT ( 'NONE', #326 ) ;
#110 = COLOUR_RGB ( '',1.000000000000000000, 1.000000000000000000, 1.000000000000000000 ) ;
#111 = EDGE_LOOP ( 'NONE', ( #161, #35 ) ) ;
#112 = EDGE_CURVE ( 'NONE', #247, #324, #129, .T. ) ;
#113 = ORIENTED_EDGE ( 'NONE', *, *, #4, .F. ) ;
#114 = FACE_OUTER_BOUND ( 'NONE', #328, .T. ) ;
#115 = FILL_AREA_STYLE ('',( #70 ) ) ;
#116 = CARTESIAN_POINT ( 'NONE',  ( 1.353339361850223530E-14, 0.4999999999999994449, 2.450000000000000178 ) ) ;
#117 = DIRECTION ( 'NONE',  ( 3.285674118869261421E-15, -0.3382550599108820610, 0.9410544694355824635 ) ) ;
#118 = CONICAL_SURFACE ( 'NONE', #212, 1.499999999999996669, 0.7853981633974530530 ) ;
#119 = ORIENTED_EDGE ( 'NONE', *, *, #172, .T. ) ;
#120 = DIRECTION ( 'NONE',  ( 4.275831445896958607E-31, 1.000000000000000000, 1.224646799147353454E-16 ) ) ;
#121 = DIRECTION ( 'NONE',  ( -3.491481338843133355E-15, 1.224646799147353207E-16, -1.000000000000000000 ) ) ;
#122 = DIRECTION ( 'NONE',  ( 0.000000000000000000, 1.000000000000000000, 0.000000000000000000 ) ) ;
#123 = DIRECTION ( 'NONE',  ( -3.491481338843133355E-15, 1.224646799147359124E-16, -1.000000000000000000 ) ) ;
#124 = PRESENTATION_LAYER_ASSIGNMENT (  '', '', ( #325 ) ) ;
#125 = DIRECTION ( 'NONE',  ( 3.491481338843133355E-15, -0.000000000000000000, 1.000000000000000000 ) ) ;
#126 = ADVANCED_FACE ( 'NONE', ( #242 ), #239, .T. ) ;
#127 = PRODUCT_RELATED_PRODUCT_CATEGORY ( 'part', '', ( #31 ) ) ;
#128 = PRESENTATION_LAYER_ASSIGNMENT (  '', '', ( #246 ) ) ;
#129 = LINE ( 'NONE', #154, #56 ) ;
#130 = CARTESIAN_POINT ( 'NONE',  ( 7.513198455556975726E-14, -1.500000000000001332, 37.69999999999999574 ) ) ;
#131 = CARTESIAN_POINT ( 'NONE',  ( 1.323178959930974906E-13, -1.199999999999996847, 38.00000000000000000 ) ) ;
#132 = AXIS2_PLACEMENT_3D ( 'NONE', #285, #234, #97 ) ;
#133 = CIRCLE ( 'NONE', #289, 1.499999999999996669 ) ;
#134 = EDGE_CURVE ( 'NONE', #259, #137, #206, .T. ) ;
#135 = ORIENTED_EDGE ( 'NONE', *, *, #87, .T. ) ;
#136 =( NAMED_UNIT ( * ) SI_UNIT ( $, .STERADIAN. ) SOLID_ANGLE_UNIT ( ) );
#137 = VERTEX_POINT ( 'NONE', #130 ) ;
#138 = VECTOR ( 'NONE', #267, 1000.000000000000114 ) ;
#139 = EDGE_LOOP ( 'NONE', ( #147, #7 ) ) ;
#140 = ORIENTED_EDGE ( 'NONE', *, *, #309, .F. ) ;
#141 = CARTESIAN_POINT ( 'NONE',  ( 0.000000000000000000, 0.000000000000000000, 0.000000000000000000 ) ) ;
#142 = DIRECTION ( 'NONE',  ( 1.000000000000000000, 0.000000000000000000, -3.491481338843133355E-15 ) ) ;
#143 = SURFACE_STYLE_FILL_AREA ( #304 ) ;
#144 = CLOSED_SHELL ( 'NONE', ( #150, #183, #310, #126, #274, #275, #53, #27 ) ) ;
#145 = ORIENTED_EDGE ( 'NONE', *, *, #335, .T. ) ;
#146 = CYLINDRICAL_SURFACE ( 'NONE', #322, 1.499999999999996669 ) ;
#147 = ORIENTED_EDGE ( 'NONE', *, *, #210, .T. ) ;
#148 = EDGE_LOOP ( 'NONE', ( #140, #89, #269, #113 ) ) ;
#149 = DIRECTION ( 'NONE',  ( 3.491481338843133355E-15, -1.224646799147353207E-16, 1.000000000000000000 ) ) ;
#150 = ADVANCED_FACE ( 'NONE', ( #341 ), #118, .T. ) ;
#151 = EDGE_CURVE ( 'NONE', #137, #109, #54, .T. ) ;
#152 = EDGE_LOOP ( 'NONE', ( #271, #145, #55, #194 ) ) ;
#153 = CARTESIAN_POINT ( 'NONE',  ( 0.4999999999999998890, 0.000000000000000000, -1.745740669421566283E-15 ) ) ;
#154 = CARTESIAN_POINT ( 'NONE',  ( 0.5000000000000082157, 0.000000000000000000, 2.449999999999998401 ) ) ;
#155 = PRESENTATION_STYLE_ASSIGNMENT (( #178 ) ) ;
#156 = PRESENTATION_STYLE_ASSIGNMENT (( #240 ) ) ;
#157 = STYLED_ITEM ( 'NONE', ( #228 ), #312 ) ;
#158 = DIRECTION ( 'NONE',  ( -4.275831445896958607E-31, -1.000000000000000000, -1.224646799147353207E-16 ) ) ;
#159 = EDGE_CURVE ( 'NONE', #93, #324, #77, .T. ) ;
#160 = MECHANICAL_DESIGN_GEOMETRIC_PRESENTATION_REPRESENTATION (  '', ( #325 ), #48 ) ;
#161 = ORIENTED_EDGE ( 'NONE', *, *, #3, .F. ) ;
#162 = ORIENTED_EDGE ( 'NONE', *, *, #334, .T. ) ;
#163 = ORIENTED_EDGE ( 'NONE', *, *, #300, .T. ) ;
#164 = AXIS2_PLACEMENT_3D ( 'NONE', #330, #44, #196 ) ;
#165 = UNCERTAINTY_MEASURE_WITH_UNIT (LENGTH_MEASURE( 1.000000000000000082E-05 ), #66, 'distance_accuracy_value', 'NONE');
#166 = LINE ( 'NONE', #63, #103 ) ;
#167 = DIRECTION ( 'NONE',  ( 0.000000000000000000, -1.000000000000000000, 0.000000000000000000 ) ) ;
#168 = CYLINDRICAL_SURFACE ( 'NONE', #205, 0.4999999999999996669 ) ;
#169 = AXIS2_PLACEMENT_3D ( 'NONE', #257, #174, #14 ) ;
#170 = FACE_OUTER_BOUND ( 'NONE', #323, .T. ) ;
#171 = DIRECTION ( 'NONE',  ( -3.491481338843133355E-15, 1.224646799147353207E-16, -1.000000000000000000 ) ) ;
#172 = EDGE_CURVE ( 'NONE', #272, #259, #176, .T. ) ;
#173 = DIRECTION ( 'NONE',  ( 1.000000000000000000, 0.000000000000000000, -3.491481338843133355E-15 ) ) ;
#174 = DIRECTION ( 'NONE',  ( -3.491481338843133355E-15, 1.224646799147359124E-16, -1.000000000000000000 ) ) ;
#175 = CYLINDRICAL_SURFACE ( 'NONE', #43, 0.4999999999999996669 ) ;
#176 = CIRCLE ( 'NONE', #90, 1.199999999999992406 ) ;
#177 = CARTESIAN_POINT ( 'NONE',  ( 8.554129280165678298E-15, 0.000000000000000000, 2.450000000000000178 ) ) ;
#178 = SURFACE_STYLE_USAGE ( .BOTH. , #266 ) ;
#179 = CARTESIAN_POINT ( 'NONE',  ( 6.413747168845423897E-31, 1.499999999999996669, 1.836970198721025990E-16 ) ) ;
#180 = CIRCLE ( 'NONE', #265, 0.4999999999999997780 ) ;
#181 = MECHANICAL_DESIGN_GEOMETRIC_PRESENTATION_REPRESENTATION (  '', ( #246 ), #67 ) ;
#182 = DIRECTION ( 'NONE',  ( 0.000000000000000000, 1.000000000000000000, 0.000000000000000000 ) ) ;
#183 = ADVANCED_FACE ( 'NONE', ( #337 ), #59, .T. ) ;
#184 = PRODUCT_DEFINITION ( 'UNKNOWN', '', #79, #253 ) ;
#185 = CARTESIAN_POINT ( 'NONE',  ( 1.321525686752125943E-13, 1.199999999999987743, 38.00000000000000000 ) ) ;
#186 = ORIENTED_EDGE ( 'NONE', *, *, #4, .T. ) ;
#187 = PRODUCT_DEFINITION_SHAPE ( 'NONE', 'NONE',  #184 ) ;
#188 = ORIENTED_EDGE ( 'NONE', *, *, #335, .F. ) ;
#189 = AXIS2_PLACEMENT_3D ( 'NONE', #39, #280, #142 ) ;
#190 = VECTOR ( 'NONE', #24, 1000.000000000000000 ) ;
#191 = AXIS2_PLACEMENT_3D ( 'NONE', #108, #268, #28 ) ;
#192 = MANIFOLD_SOLID_BREP ( 'Corps-Déplacer/Copier1[2]', #36 ) ;
#193 = VERTEX_POINT ( 'NONE', #203 ) ;
#194 = ORIENTED_EDGE ( 'NONE', *, *, #211, .F. ) ;
#195 = APPLICATION_PROTOCOL_DEFINITION ( 'draft international standard', 'automotive_design', 1998, #15 ) ;
#196 = DIRECTION ( 'NONE',  ( 0.000000000000000000, 1.000000000000000000, 0.000000000000000000 ) ) ;
#197 = DIRECTION ( 'NONE',  ( -3.491481338843133355E-15, 1.224646799147353207E-16, -1.000000000000000000 ) ) ;
#198 = ORIENTED_EDGE ( 'NONE', *, *, #159, .F. ) ;
#199 = EDGE_LOOP ( 'NONE', ( #119, #58 ) ) ;
#200 = MECHANICAL_DESIGN_GEOMETRIC_PRESENTATION_REPRESENTATION (  '', ( #157 ), #294 ) ;
#201 = FACE_OUTER_BOUND ( 'NONE', #29, .T. ) ;
#202 = DIRECTION ( 'NONE',  ( -3.491481338843133355E-15, 0.000000000000000000, -1.000000000000000000 ) ) ;
#203 = CARTESIAN_POINT ( 'NONE',  ( 1.826772859700932042E-14, 1.499999999999995337, 5.232085417091802526 ) ) ;
#204 = CARTESIAN_POINT ( 'NONE',  ( 8.554129280165678298E-15, 0.000000000000000000, 2.450000000000000178 ) ) ;
#205 = AXIS2_PLACEMENT_3D ( 'NONE', #10, #61, #307 ) ;
#206 = LINE ( 'NONE', #314, #233 ) ;
#207 = CARTESIAN_POINT ( 'NONE',  ( 1.316288464743861212E-13, -4.616918432785521081E-15, 37.69999999999999574 ) ) ;
#208 = DIRECTION ( 'NONE',  ( 0.000000000000000000, -1.000000000000000000, 0.000000000000000000 ) ) ;
#209 = SURFACE_STYLE_FILL_AREA ( #115 ) ;
#210 = EDGE_CURVE ( 'NONE', #324, #93, #317, .T. ) ;
#211 = EDGE_CURVE ( 'NONE', #109, #193, #255, .T. ) ;
#212 = AXIS2_PLACEMENT_3D ( 'NONE', #207, #101, #182 ) ;
#213 = FACE_OUTER_BOUND ( 'NONE', #199, .T. ) ;
#214 = APPLICATION_PROTOCOL_DEFINITION ( 'draft international standard', 'automotive_design', 1998, #33 ) ;
#215 = ORIENTED_EDGE ( 'NONE', *, *, #211, .T. ) ;
#216 = ADVANCED_BREP_SHAPE_REPRESENTATION ( '56991', ( #312, #192, #191 ), #295 ) ;
#217 = ORIENTED_EDGE ( 'NONE', *, *, #112, .F. ) ;
#218 = AXIS2_PLACEMENT_3D ( 'NONE', #329, #149, #281 ) ;
#219 = ORIENTED_EDGE ( 'NONE', *, *, #286, .T. ) ;
#220 = ORIENTED_EDGE ( 'NONE', *, *, #134, .F. ) ;
#221 = ORIENTED_EDGE ( 'NONE', *, *, #210, .F. ) ;
#222 = CARTESIAN_POINT ( 'NONE',  ( 0.000000000000000000, 0.000000000000000000, 0.000000000000000000 ) ) ;
#223 = EDGE_CURVE ( 'NONE', #297, #193, #311, .T. ) ;
#224 = CIRCLE ( 'NONE', #57, 0.4999999999999997780 ) ;
#225 = CARTESIAN_POINT ( 'NONE',  ( -0.4999999999999908962, 6.123233995736761105E-17, 2.450000000000001954 ) ) ;
#226 = DIRECTION ( 'NONE',  ( -3.730349362740525976E-14, -1.000000000000000000, 0.000000000000000000 ) ) ;
#227 = CARTESIAN_POINT ( 'NONE',  ( 0.000000000000000000, 0.000000000000000000, 0.000000000000000000 ) ) ;
#228 = PRESENTATION_STYLE_ASSIGNMENT (( #64 ) ) ;
#229 = ORIENTED_EDGE ( 'NONE', *, *, #76, .F. ) ;
#230 =( NAMED_UNIT ( * ) SI_UNIT ( $, .STERADIAN. ) SOLID_ANGLE_UNIT ( ) );
#231 = CIRCLE ( 'NONE', #20, 0.4999999999999998890 ) ;
#232 = PLANE ( 'NONE',  #37 ) ;
#233 = VECTOR ( 'NONE', #290, 1000.000000000000114 ) ;
#234 = DIRECTION ( 'NONE',  ( -3.491481338843133355E-15, 1.224646799147353207E-16, -1.000000000000000000 ) ) ;
#235 = DIRECTION ( 'NONE',  ( 4.275831445896958607E-31, 1.000000000000000000, 1.224646799147353207E-16 ) ) ;
#236 = SURFACE_STYLE_FILL_AREA ( #100 ) ;
#237 = CARTESIAN_POINT ( 'NONE',  ( 1.326762908760390423E-13, -4.653657836759941941E-15, 38.00000000000000000 ) ) ;
#238 = AXIS2_PLACEMENT_3D ( 'NONE', #98, #338, #263 ) ;
#239 = PLANE ( 'NONE',  #72 ) ;
#240 = SURFACE_STYLE_USAGE ( .BOTH. , #50 ) ;
#241 = ADVANCED_FACE ( 'NONE', ( #71 ), #175, .T. ) ;
#242 = FACE_OUTER_BOUND ( 'NONE', #320, .T. ) ;
#243 = CARTESIAN_POINT ( 'NONE',  ( 8.615361620123045872E-15, 0.4999999999999994449, 2.450000000000000178 ) ) ;
#244 = PRODUCT_CONTEXT ( 'NONE', #15, 'mechanical' ) ;
#245 = CONICAL_SURFACE ( 'NONE', #332, 0.4999999999999997780, 0.3450620389298191260 ) ;
#246 = STYLED_ITEM ( 'NONE', ( #156 ), #216 ) ;
#247 = VERTEX_POINT ( 'NONE', #153 ) ;
#248 = ORIENTED_EDGE ( 'NONE', *, *, #250, .T. ) ;
#249 = EDGE_LOOP ( 'NONE', ( #107, #229, #162, #215 ) ) ;
#250 = EDGE_CURVE ( 'NONE', #19, #93, #313, .T. ) ;
#251 = EDGE_CURVE ( 'NONE', #6, #193, #26, .T. ) ;
#252 =( NAMED_UNIT ( * ) SI_UNIT ( $, .STERADIAN. ) SOLID_ANGLE_UNIT ( ) );
#253 = PRODUCT_DEFINITION_CONTEXT ( 'detailed design', #33, 'design' ) ;
#254 = DIRECTION ( 'NONE',  ( 3.491481338843133355E-15, -1.224646799147353207E-16, 1.000000000000000000 ) ) ;
#255 = CIRCLE ( 'NONE', #238, 1.499999999999996003 ) ;
#256 = DIRECTION ( 'NONE',  ( 1.000000000000000000, 0.000000000000000000, -3.491481338843133355E-15 ) ) ;
#257 = CARTESIAN_POINT ( 'NONE',  ( 1.316288464743861212E-13, -4.616918432785521081E-15, 37.69999999999999574 ) ) ;
#258 = CARTESIAN_POINT ( 'NONE',  ( 8.554129280165678298E-15, -3.000384657911015863E-16, 2.450000000000000178 ) ) ;
#259 = VERTEX_POINT ( 'NONE', #131 ) ;
#260 = DIRECTION ( 'NONE',  ( 4.275831445896958607E-31, 1.000000000000000000, 1.224646799147353454E-16 ) ) ;
#261 = DIRECTION ( 'NONE',  ( 3.491481338843133355E-15, -1.224646799147353207E-16, 1.000000000000000000 ) ) ;
#262 = CIRCLE ( 'NONE', #169, 1.499999999999996669 ) ;
#263 = DIRECTION ( 'NONE',  ( 0.000000000000000000, 1.000000000000000000, 0.000000000000000000 ) ) ;
#264 =( NAMED_UNIT ( * ) PLANE_ANGLE_UNIT ( ) SI_UNIT ( $, .RADIAN. ) );
#265 = AXIS2_PLACEMENT_3D ( 'NONE', #258, #94, #16 ) ;
#266 = SURFACE_SIDE_STYLE ('',( #236 ) ) ;
#267 = DIRECTION ( 'NONE',  ( 3.327098416510788004E-15, 0.3382550599108818945, 0.9410544694355825746 ) ) ;
#268 = DIRECTION ( 'NONE',  ( 0.000000000000000000, 0.000000000000000000, 1.000000000000000000 ) ) ;
#269 = ORIENTED_EDGE ( 'NONE', *, *, #286, .F. ) ;
#270 = ORIENTED_EDGE ( 'NONE', *, *, #60, .T. ) ;
#271 = ORIENTED_EDGE ( 'NONE', *, *, #151, .F. ) ;
#272 = VERTEX_POINT ( 'NONE', #185 ) ;
#273 = COLOUR_RGB ( '',1.000000000000000000, 1.000000000000000000, 1.000000000000000000 ) ;
#274 = ADVANCED_FACE ( 'NONE', ( #213 ), #318, .T. ) ;
#275 = ADVANCED_FACE ( 'NONE', ( #327 ), #146, .T. ) ;
#276 = CARTESIAN_POINT ( 'NONE',  ( -0.4999999999999998890, 6.123233995736816572E-17, 1.745740669421566283E-15 ) ) ;
#277 = CARTESIAN_POINT ( 'NONE',  ( 7.494828753569771765E-14, 1.499999999999992228, 37.69999999999999574 ) ) ;
#278 = FACE_OUTER_BOUND ( 'NONE', #139, .T. ) ;
#279 = AXIS2_PLACEMENT_3D ( 'NONE', #80, #296, #158 ) ;
#280 = DIRECTION ( 'NONE',  ( 3.491481338843133355E-15, -0.000000000000000000, 1.000000000000000000 ) ) ;
#281 = DIRECTION ( 'NONE',  ( 0.000000000000000000, -1.000000000000000000, 0.000000000000000000 ) ) ;
#282 = CARTESIAN_POINT ( 'NONE',  ( 8.554129280165678298E-15, -3.000384657911015863E-16, 2.450000000000000178 ) ) ;
#283 = CARTESIAN_POINT ( 'NONE',  ( 0.5000000000000079936, 0.000000000000000000, 2.449999999999998401 ) ) ;
#284 = FACE_OUTER_BOUND ( 'NONE', #111, .T. ) ;
#285 = CARTESIAN_POINT ( 'NONE',  ( 1.826772859700932042E-14, -6.407456658907021581E-16, 5.232085417091802526 ) ) ;
#286 = EDGE_CURVE ( 'NONE', #297, #137, #262, .T. ) ;
#287 = DIRECTION ( 'NONE',  ( 3.491481338843133355E-15, -0.000000000000000000, 1.000000000000000000 ) ) ;
#288 = CIRCLE ( 'NONE', #132, 1.499999999999996003 ) ;
#289 = AXIS2_PLACEMENT_3D ( 'NONE', #45, #123, #226 ) ;
#290 = DIRECTION ( 'NONE',  ( -2.382254525458704059E-15, -0.7071067811865507924, -0.7071067811865442421 ) ) ;
#291 = DIRECTION ( 'NONE',  ( 3.491481338843133355E-15, -0.000000000000000000, 1.000000000000000000 ) ) ;
#292 = DIRECTION ( 'NONE',  ( 3.491481338843133355E-15, -1.224646799147353207E-16, 1.000000000000000000 ) ) ;
#293 =( NAMED_UNIT ( * ) PLANE_ANGLE_UNIT ( ) SI_UNIT ( $, .RADIAN. ) );
#294 =( GEOMETRIC_REPRESENTATION_CONTEXT ( 3 ) GLOBAL_UNCERTAINTY_ASSIGNED_CONTEXT ( ( #88 ) ) GLOBAL_UNIT_ASSIGNED_CONTEXT ( ( #331, #17, #252 ) ) REPRESENTATION_CONTEXT ( 'NONE', 'WORKASPACE' ) );
#295 =( GEOMETRIC_REPRESENTATION_CONTEXT ( 3 ) GLOBAL_UNCERTAINTY_ASSIGNED_CONTEXT ( ( #165 ) ) GLOBAL_UNIT_ASSIGNED_CONTEXT ( ( #66, #40, #230 ) ) REPRESENTATION_CONTEXT ( 'NONE', 'WORKASPACE' ) );
#296 = DIRECTION ( 'NONE',  ( 3.491481338843133355E-15, -1.224646799147353207E-16, 1.000000000000000000 ) ) ;
#297 = VERTEX_POINT ( 'NONE', #277 ) ;
#298 = AXIS2_PLACEMENT_3D ( 'NONE', #315, #291, #78 ) ;
#299 = ORIENTED_EDGE ( 'NONE', *, *, #151, .T. ) ;
#300 = EDGE_CURVE ( 'NONE', #193, #109, #288, .T. ) ;
#301 = VECTOR ( 'NONE', #117, 1000.000000000000114 ) ;
#302 = ORIENTED_EDGE ( 'NONE', *, *, #223, .F. ) ;
#303 = CARTESIAN_POINT ( 'NONE',  ( 8.554129280165678298E-15, -3.000384657911015863E-16, 2.450000000000000178 ) ) ;
#304 = FILL_AREA_STYLE ('',( #336 ) ) ;
#305 = DIRECTION ( 'NONE',  ( -2.468850131082253511E-15, 0.7071067811865510144, -0.7071067811865441310 ) ) ;
#306 = AXIS2_PLACEMENT_3D ( 'NONE', #222, #197, #120 ) ;
#307 = DIRECTION ( 'NONE',  ( 1.000000000000000000, 0.000000000000000000, -3.469446951953616555E-15 ) ) ;
#308 = CARTESIAN_POINT ( 'NONE',  ( 1.341092893858750015E-14, -0.5000000000000001110, 2.450000000000000178 ) ) ;
#309 = EDGE_CURVE ( 'NONE', #259, #272, #23, .T. ) ;
#310 = ADVANCED_FACE ( 'NONE', ( #201 ), #92, .T. ) ;
#311 = LINE ( 'NONE', #179, #190 ) ;
#312 = MANIFOLD_SOLID_BREP ( 'Corps-Déplacer/Copier1[1]', #144 ) ;
#313 = LINE ( 'NONE', #1, #83 ) ;
#314 = CARTESIAN_POINT ( 'NONE',  ( 1.318125434942582113E-13, -1.500000000000001332, 37.69999999999999574 ) ) ;
#315 = CARTESIAN_POINT ( 'NONE',  ( 8.554129280165678298E-15, 0.000000000000000000, 2.450000000000000178 ) ) ;
#316 = CARTESIAN_POINT ( 'NONE',  ( 8.554129280165678298E-15, -3.000384657911015863E-16, 2.450000000000000178 ) ) ;
#317 = CIRCLE ( 'NONE', #339, 0.4999999999999994449 ) ;
#318 = PLANE ( 'NONE',  #279 ) ;
#319 = SHAPE_DEFINITION_REPRESENTATION ( #187, #216 ) ;
#320 = EDGE_LOOP ( 'NONE', ( #82, #270 ) ) ;
#321 = ORIENTED_EDGE ( 'NONE', *, *, #172, .F. ) ;
#322 = AXIS2_PLACEMENT_3D ( 'NONE', #141, #171, #260 ) ;
#323 = EDGE_LOOP ( 'NONE', ( #220, #321, #186, #188 ) ) ;
#324 = VERTEX_POINT ( 'NONE', #283 ) ;
#325 = STYLED_ITEM ( 'NONE', ( #155 ), #192 ) ;
#326 = CARTESIAN_POINT ( 'NONE',  ( 7.513198455556980775E-14, -1.499999999999996669, 5.232085417091802526 ) ) ;
#327 = FACE_OUTER_BOUND ( 'NONE', #152, .T. ) ;
#328 = EDGE_LOOP ( 'NONE', ( #91, #135, #81, #198 ) ) ;
#329 = CARTESIAN_POINT ( 'NONE',  ( 1.326762908760390423E-13, -4.653657836759941941E-15, 38.00000000000000000 ) ) ;
#330 = CARTESIAN_POINT ( 'NONE',  ( 1.316288464743861212E-13, -4.616918432785521081E-15, 37.69999999999999574 ) ) ;
#331 =( LENGTH_UNIT ( ) NAMED_UNIT ( * ) SI_UNIT ( .MILLI., .METRE. ) );
#332 = AXIS2_PLACEMENT_3D ( 'NONE', #303, #254, #167 ) ;
#333 = ORIENTED_EDGE ( 'NONE', *, *, #3, .T. ) ;
#334 = EDGE_CURVE ( 'NONE', #32, #109, #95, .T. ) ;
#335 = EDGE_CURVE ( 'NONE', #137, #297, #133, .T. ) ;
#336 = FILL_AREA_STYLE_COLOUR ( '', #110 ) ;
#337 = FACE_OUTER_BOUND ( 'NONE', #34, .T. ) ;
#338 = DIRECTION ( 'NONE',  ( -3.491481338843133355E-15, 1.224646799147353207E-16, -1.000000000000000000 ) ) ;
#339 = AXIS2_PLACEMENT_3D ( 'NONE', #177, #125, #73 ) ;
#340 = DIRECTION ( 'NONE',  ( 0.000000000000000000, -1.000000000000000000, 0.000000000000000000 ) ) ;
#341 = FACE_OUTER_BOUND ( 'NONE', #148, .T. ) ;
#342 =( LENGTH_UNIT ( ) NAMED_UNIT ( * ) SI_UNIT ( .MILLI., .METRE. ) );
#343 = CARTESIAN_POINT ( 'NONE',  ( 1.836970198721019580E-16, -1.499999999999996669, -1.836970198721032153E-16 ) ) ;
ENDSEC;
END-ISO-10303-21;
