ISO-10303-21;
HEADER;
FILE_DESCRIPTION (( 'STEP AP214' ),
    '1' );
FILE_NAME ('56990.step',
    '2024-04-04T09:55:58',
    ( '' ),
    ( '' ),
    'SwSTEP 2.0',
    'SolidWorks 2022',
    '' );
FILE_SCHEMA (( 'AUTOMOTIVE_DESIGN' ));
ENDSEC;

DATA;
#1 = SURFACE_SIDE_STYLE ('',( #189 ) ) ;
#2 = AXIS2_PLACEMENT_3D ( 'NONE', #298, #230, #123 ) ;
#3 = VERTEX_POINT ( 'NONE', #13 ) ;
#4 = EDGE_CURVE ( 'NONE', #196, #141, #201, .T. ) ;
#5 = AXIS2_PLACEMENT_3D ( 'NONE', #127, #51, #184 ) ;
#6 = VECTOR ( 'NONE', #227, 1000.000000000000000 ) ;
#7 = ADVANCED_FACE ( 'NONE', ( #276 ), #92, .T. ) ;
#8 = ORIENTED_EDGE ( 'NONE', *, *, #310, .F. ) ;
#9 = DIRECTION ( 'NONE',  ( 3.491481338843133355E-15, -1.224646799147353207E-16, 1.000000000000000000 ) ) ;
#10 = ORIENTED_EDGE ( 'NONE', *, *, #4, .F. ) ;
#11 = CARTESIAN_POINT ( 'NONE',  ( 7.332110811570578468E-15, 0.4499999999999994560, 2.099999999999999645 ) ) ;
#12 = CIRCLE ( 'NONE', #158, 0.4499999999999997335 ) ;
#13 = CARTESIAN_POINT ( 'NONE',  ( -0.4499999999999921285, 5.510910596163082776E-17, 2.100000000000000977 ) ) ;
#14 = DIRECTION ( 'NONE',  ( 3.491481338843133355E-15, -0.000000000000000000, 1.000000000000000000 ) ) ;
#15 = DIRECTION ( 'NONE',  ( -3.491481338843133355E-15, 1.224646799147353207E-16, -1.000000000000000000 ) ) ;
#16 = EDGE_CURVE ( 'NONE', #333, #87, #295, .T. ) ;
#17 = ADVANCED_FACE ( 'NONE', ( #248 ), #145, .T. ) ;
#18 = PLANE ( 'NONE',  #152 ) ;
#19 = DIRECTION ( 'NONE',  ( -2.468850131082287037E-15, 0.7071067811865412445, -0.7071067811865536790 ) ) ;
#20 = COLOUR_RGB ( '',1.000000000000000000, 1.000000000000000000, 1.000000000000000000 ) ;
#21 = CARTESIAN_POINT ( 'NONE',  ( 7.332110811570578468E-15, 0.000000000000000000, 2.099999999999999645 ) ) ;
#22 = CARTESIAN_POINT ( 'NONE',  ( 7.476381530419327469E-14, -1.499999999999994227, 5.021189687946385760 ) ) ;
#23 = LINE ( 'NONE', #56, #328 ) ;
#24 = CIRCLE ( 'NONE', #169, 1.499999999999993561 ) ;
#25 = DIRECTION ( 'NONE',  ( 1.000000000000000000, 0.000000000000000000, -3.854941057726242633E-15 ) ) ;
#26 = PRODUCT ( '56990', '56990', '', ( #318 ) ) ;
#27 = CARTESIAN_POINT ( 'NONE',  ( 0.4500000000000068945, 0.000000000000000000, 2.099999999999997868 ) ) ;
#28 = SHAPE_DEFINITION_REPRESENTATION ( #317, #82 ) ;
#29 =( GEOMETRIC_REPRESENTATION_CONTEXT ( 3 ) GLOBAL_UNCERTAINTY_ASSIGNED_CONTEXT ( ( #41 ) ) GLOBAL_UNIT_ASSIGNED_CONTEXT ( ( #81, #240, #188 ) ) REPRESENTATION_CONTEXT ( 'NONE', 'WORKASPACE' ) );
#30 = ORIENTED_EDGE ( 'NONE', *, *, #250, .F. ) ;
#31 = AXIS2_PLACEMENT_3D ( 'NONE', #176, #252, #124 ) ;
#32 = ADVANCED_FACE ( 'NONE', ( #326 ), #18, .T. ) ;
#33 = ORIENTED_EDGE ( 'NONE', *, *, #195, .T. ) ;
#34 = CIRCLE ( 'NONE', #2, 1.499999999999993561 ) ;
#35 = PRODUCT_DEFINITION_CONTEXT ( 'detailed design', #178, 'design' ) ;
#36 = ORIENTED_EDGE ( 'NONE', *, *, #94, .F. ) ;
#37 = DIRECTION ( 'NONE',  ( -3.491481338843133355E-15, 0.000000000000000000, -1.000000000000000000 ) ) ;
#38 = EDGE_LOOP ( 'NONE', ( #10, #162, #137, #30 ) ) ;
#39 = FACE_OUTER_BOUND ( 'NONE', #115, .T. ) ;
#40 = VECTOR ( 'NONE', #103, 1000.000000000000000 ) ;
#41 = UNCERTAINTY_MEASURE_WITH_UNIT (LENGTH_MEASURE( 1.000000000000000082E-05 ), #81, 'distance_accuracy_value', 'NONE');
#42 = EDGE_LOOP ( 'NONE', ( #63, #36 ) ) ;
#43 = CARTESIAN_POINT ( 'NONE',  ( 7.458011828432123508E-14, 1.499999999999991118, 37.69999999999998153 ) ) ;
#44 = EDGE_CURVE ( 'NONE', #138, #164, #34, .T. ) ;
#45 = DIRECTION ( 'NONE',  ( 4.275831445896958607E-31, 1.000000000000000000, 1.224646799147353207E-16 ) ) ;
#46 = PLANE ( 'NONE',  #200 ) ;
#47 = EDGE_CURVE ( 'NONE', #242, #138, #300, .T. ) ;
#48 = ORIENTED_EDGE ( 'NONE', *, *, #139, .T. ) ;
#49 = AXIS2_PLACEMENT_3D ( 'NONE', #302, #306, #66 ) ;
#50 = CARTESIAN_POINT ( 'NONE',  ( 1.323178959930974653E-13, -1.199999999999990186, 38.00000000000000000 ) ) ;
#51 = DIRECTION ( 'NONE',  ( -3.491481338843133355E-15, 1.224646799147353207E-16, -1.000000000000000000 ) ) ;
#52 = CARTESIAN_POINT ( 'NONE',  ( 1.321525686752125691E-13, 1.199999999999981082, 38.00000000000000000 ) ) ;
#53 = VECTOR ( 'NONE', #156, 1000.000000000000000 ) ;
#54 = PRESENTATION_LAYER_ASSIGNMENT (  '', '', ( #241 ) ) ;
#55 = CARTESIAN_POINT ( 'NONE',  ( 1.255115351583034769E-14, 0.4499999999999994560, 2.099999999999999645 ) ) ;
#56 = CARTESIAN_POINT ( 'NONE',  ( 7.387219917532208969E-15, 0.4499999999999994560, 2.099999999999999645 ) ) ;
#57 = ORIENTED_EDGE ( 'NONE', *, *, #179, .T. ) ;
#58 = CIRCLE ( 'NONE', #339, 0.4499999999999994560 ) ;
#59 = PRODUCT_DEFINITION_FORMATION_WITH_SPECIFIED_SOURCE ( 'ANY', '', #26, .NOT_KNOWN. ) ;
#60 = EDGE_LOOP ( 'NONE', ( #270, #292, #301, #190 ) ) ;
#61 = ORIENTED_EDGE ( 'NONE', *, *, #195, .F. ) ;
#62 = ORIENTED_EDGE ( 'NONE', *, *, #131, .F. ) ;
#63 = ORIENTED_EDGE ( 'NONE', *, *, #16, .F. ) ;
#64 = CARTESIAN_POINT ( 'NONE',  ( 1.316288464743860707E-13, -4.616918432785519503E-15, 37.69999999999998153 ) ) ;
#65 = DIRECTION ( 'NONE',  ( 0.000000000000000000, 1.000000000000000000, 0.000000000000000000 ) ) ;
#66 = DIRECTION ( 'NONE',  ( -3.819167204710538499E-14, -1.000000000000000000, 0.000000000000000000 ) ) ;
#67 = SURFACE_STYLE_FILL_AREA ( #171 ) ;
#68 = ORIENTED_EDGE ( 'NONE', *, *, #44, .T. ) ;
#69 = EDGE_CURVE ( 'NONE', #177, #272, #12, .T. ) ;
#70 =( NAMED_UNIT ( * ) SI_UNIT ( $, .STERADIAN. ) SOLID_ANGLE_UNIT ( ) );
#71 = COLOUR_RGB ( '',1.000000000000000000, 1.000000000000000000, 1.000000000000000000 ) ;
#72 = DIRECTION ( 'NONE',  ( -3.491481338843133355E-15, 1.224646799147353207E-16, -1.000000000000000000 ) ) ;
#73 = DIRECTION ( 'NONE',  ( 1.000000000000000000, 0.000000000000000000, -3.491481338843133355E-15 ) ) ;
#74 = LINE ( 'NONE', #77, #163 ) ;
#75 = AXIS2_PLACEMENT_3D ( 'NONE', #251, #15, #45 ) ;
#76 = DIRECTION ( 'NONE',  ( -3.491481338843133355E-15, 1.224646799147353207E-16, -1.000000000000000000 ) ) ;
#77 = CARTESIAN_POINT ( 'NONE',  ( 7.332110811570578468E-15, -0.4500000000000000111, 2.099999999999999645 ) ) ;
#78 = DIRECTION ( 'NONE',  ( -3.491481338843133355E-15, 1.224646799147353947E-16, -1.000000000000000000 ) ) ;
#79 = ADVANCED_FACE ( 'NONE', ( #175 ), #336, .T. ) ;
#80 =( GEOMETRIC_REPRESENTATION_CONTEXT ( 3 ) GLOBAL_UNCERTAINTY_ASSIGNED_CONTEXT ( ( #172 ) ) GLOBAL_UNIT_ASSIGNED_CONTEXT ( ( #117, #244, #70 ) ) REPRESENTATION_CONTEXT ( 'NONE', 'WORKASPACE' ) );
#81 =( LENGTH_UNIT ( ) NAMED_UNIT ( * ) SI_UNIT ( .MILLI., .METRE. ) );
#82 = ADVANCED_BREP_SHAPE_REPRESENTATION ( '56990', ( #231, #217, #247 ), #340 ) ;
#83 = FILL_AREA_STYLE ('',( #135 ) ) ;
#84 = ORIENTED_EDGE ( 'NONE', *, *, #286, .T. ) ;
#85 = ORIENTED_EDGE ( 'NONE', *, *, #155, .F. ) ;
#86 = CIRCLE ( 'NONE', #49, 1.499999999999995781 ) ;
#87 = VERTEX_POINT ( 'NONE', #305 ) ;
#88 = ORIENTED_EDGE ( 'NONE', *, *, #69, .F. ) ;
#89 = UNCERTAINTY_MEASURE_WITH_UNIT (LENGTH_MEASURE( 1.000000000000000082E-05 ), #122, 'distance_accuracy_value', 'NONE');
#90 = CARTESIAN_POINT ( 'NONE',  ( 7.332110811570578468E-15, -2.571758278209440971E-16, 2.099999999999999645 ) ) ;
#91 = LINE ( 'NONE', #182, #6 ) ;
#92 = CYLINDRICAL_SURFACE ( 'NONE', #75, 1.499999999999995781 ) ;
#93 = CARTESIAN_POINT ( 'NONE',  ( 0.4499999999999996780, 0.000000000000000000, -1.571166602479408827E-15 ) ) ;
#94 = EDGE_CURVE ( 'NONE', #87, #333, #243, .T. ) ;
#95 = DIRECTION ( 'NONE',  ( -4.275831445896958607E-31, -1.000000000000000000, -1.224646799147353207E-16 ) ) ;
#96 = ORIENTED_EDGE ( 'NONE', *, *, #284, .F. ) ;
#97 = CIRCLE ( 'NONE', #5, 0.4499999999999997335 ) ;
#98 = VECTOR ( 'NONE', #19, 1000.000000000000114 ) ;
#99 = CARTESIAN_POINT ( 'NONE',  ( 1.326762908760390423E-13, -4.653657836759941941E-15, 38.00000000000000000 ) ) ;
#100 = CARTESIAN_POINT ( 'NONE',  ( 1.326762908760390423E-13, -4.653657836759941941E-15, 38.00000000000000000 ) ) ;
#101 = CARTESIAN_POINT ( 'NONE',  ( 7.332110811570578468E-15, 0.000000000000000000, 2.099999999999999645 ) ) ;
#102 = CLOSED_SHELL ( 'NONE', ( #293, #229, #323, #260 ) ) ;
#103 = DIRECTION ( 'NONE',  ( 3.491481338843133355E-15, -0.000000000000000000, 1.000000000000000000 ) ) ;
#104 = ADVANCED_FACE ( 'NONE', ( #338 ), #140, .T. ) ;
#105 = PRESENTATION_STYLE_ASSIGNMENT (( #342 ) ) ;
#106 = PRODUCT_RELATED_PRODUCT_CATEGORY ( 'part', '', ( #26 ) ) ;
#107 = AXIS2_PLACEMENT_3D ( 'NONE', #261, #76, #238 ) ;
#108 = CARTESIAN_POINT ( 'NONE',  ( 7.332110811570578468E-15, 0.000000000000000000, 2.099999999999999645 ) ) ;
#109 = ORIENTED_EDGE ( 'NONE', *, *, #310, .T. ) ;
#110 = VECTOR ( 'NONE', #303, 1000.000000000000000 ) ;
#111 = VERTEX_POINT ( 'NONE', #308 ) ;
#112 = ORIENTED_EDGE ( 'NONE', *, *, #131, .T. ) ;
#113 = SURFACE_SIDE_STYLE ('',( #67 ) ) ;
#114 = CARTESIAN_POINT ( 'NONE',  ( 0.000000000000000000, 0.000000000000000000, 0.000000000000000000 ) ) ;
#115 = EDGE_LOOP ( 'NONE', ( #8, #180, #245, #288 ) ) ;
#116 = CIRCLE ( 'NONE', #168, 1.199999999999985523 ) ;
#117 =( LENGTH_UNIT ( ) NAMED_UNIT ( * ) SI_UNIT ( .MILLI., .METRE. ) );
#118 = ORIENTED_EDGE ( 'NONE', *, *, #69, .T. ) ;
#119 = DIRECTION ( 'NONE',  ( -1.000000000000000000, 0.000000000000000000, 3.491481338843133355E-15 ) ) ;
#120 = PRESENTATION_STYLE_ASSIGNMENT (( #296 ) ) ;
#121 = CARTESIAN_POINT ( 'NONE',  ( 1.316288464743860707E-13, -4.616918432785519503E-15, 37.69999999999998153 ) ) ;
#122 =( LENGTH_UNIT ( ) NAMED_UNIT ( * ) SI_UNIT ( .MILLI., .METRE. ) );
#123 = DIRECTION ( 'NONE',  ( 0.000000000000000000, 1.000000000000000000, 0.000000000000000000 ) ) ;
#124 = DIRECTION ( 'NONE',  ( 1.000000000000000000, 0.000000000000000000, -3.491481338843133355E-15 ) ) ;
#125 = AXIS2_PLACEMENT_3D ( 'NONE', #210, #205, #312 ) ;
#126 = MECHANICAL_DESIGN_GEOMETRIC_PRESENTATION_REPRESENTATION (  '', ( #241 ), #80 ) ;
#127 = CARTESIAN_POINT ( 'NONE',  ( 7.332110811570578468E-15, -2.571758278209440971E-16, 2.099999999999999645 ) ) ;
#128 = CYLINDRICAL_SURFACE ( 'NONE', #255, 0.4499999999999995670 ) ;
#129 = DIRECTION ( 'NONE',  ( 1.000000000000000000, 0.000000000000000000, -3.854941057726242633E-15 ) ) ;
#130 = AXIS2_PLACEMENT_3D ( 'NONE', #121, #150, #225 ) ;
#131 = EDGE_CURVE ( 'NONE', #177, #138, #23, .T. ) ;
#132 = EDGE_CURVE ( 'NONE', #242, #141, #199, .T. ) ;
#133 = SURFACE_SIDE_STYLE ('',( #236 ) ) ;
#134 = EDGE_CURVE ( 'NONE', #272, #164, #74, .T. ) ;
#135 = FILL_AREA_STYLE_COLOUR ( '', #214 ) ;
#136 = MECHANICAL_DESIGN_GEOMETRIC_PRESENTATION_REPRESENTATION (  '', ( #279 ), #29 ) ;
#137 = ORIENTED_EDGE ( 'NONE', *, *, #235, .T. ) ;
#138 = VERTEX_POINT ( 'NONE', #311 ) ;
#139 = EDGE_CURVE ( 'NONE', #272, #177, #97, .T. ) ;
#140 = CONICAL_SURFACE ( 'NONE', #322, 0.4499999999999997335, 0.3450620389298191260 ) ;
#141 = VERTEX_POINT ( 'NONE', #154 ) ;
#142 = DIRECTION ( 'NONE',  ( -3.491481338843133355E-15, 1.224646799147353207E-16, -1.000000000000000000 ) ) ;
#143 = EDGE_LOOP ( 'NONE', ( #320, #170, #61, #294 ) ) ;
#144 = CARTESIAN_POINT ( 'NONE',  ( 1.243175045291348029E-14, -0.4500000000000000111, 2.099999999999999645 ) ) ;
#145 = CONICAL_SURFACE ( 'NONE', #130, 1.499999999999995781, 0.7853981633974392862 ) ;
#146 = DIRECTION ( 'NONE',  ( -2.382254525458739558E-15, -0.7071067811865410224, -0.7071067811865540120 ) ) ;
#147 = FACE_OUTER_BOUND ( 'NONE', #191, .T. ) ;
#148 = EDGE_LOOP ( 'NONE', ( #48, #118 ) ) ;
#149 =( NAMED_UNIT ( * ) SI_UNIT ( $, .STERADIAN. ) SOLID_ANGLE_UNIT ( ) );
#150 = DIRECTION ( 'NONE',  ( -3.491481338843133355E-15, 1.224646799147353947E-16, -1.000000000000000000 ) ) ;
#151 = VERTEX_POINT ( 'NONE', #52 ) ;
#152 = AXIS2_PLACEMENT_3D ( 'NONE', #226, #203, #331 ) ;
#153 = CARTESIAN_POINT ( 'NONE',  ( 1.316288464743860707E-13, -4.616918432785519503E-15, 37.69999999999998153 ) ) ;
#154 = CARTESIAN_POINT ( 'NONE',  ( 7.476381530419324945E-14, -1.500000000000000222, 37.69999999999998153 ) ) ;
#155 = EDGE_CURVE ( 'NONE', #3, #111, #58, .T. ) ;
#156 = DIRECTION ( 'NONE',  ( -3.491481338843133355E-15, 1.224646799147353207E-16, -1.000000000000000000 ) ) ;
#157 = APPLICATION_CONTEXT ( 'automotive_design' ) ;
#158 = AXIS2_PLACEMENT_3D ( 'NONE', #90, #72, #65 ) ;
#159 = CARTESIAN_POINT ( 'NONE',  ( 1.836970198721018348E-16, -1.499999999999995781, -1.836970198721030920E-16 ) ) ;
#160 = DIRECTION ( 'NONE',  ( 1.000000000000000000, 0.000000000000000000, 0.000000000000000000 ) ) ;
#161 = DIRECTION ( 'NONE',  ( 3.491481338843133355E-15, -0.000000000000000000, 1.000000000000000000 ) ) ;
#162 = ORIENTED_EDGE ( 'NONE', *, *, #206, .F. ) ;
#163 = VECTOR ( 'NONE', #256, 1000.000000000000114 ) ;
#164 = VERTEX_POINT ( 'NONE', #22 ) ;
#165 = ADVANCED_FACE ( 'NONE', ( #185 ), #285, .T. ) ;
#166 = ORIENTED_EDGE ( 'NONE', *, *, #134, .T. ) ;
#167 = PRODUCT_DEFINITION ( 'UNKNOWN', '', #59, #35 ) ;
#168 = AXIS2_PLACEMENT_3D ( 'NONE', #314, #258, #237 ) ;
#169 = AXIS2_PLACEMENT_3D ( 'NONE', #337, #142, #278 ) ;
#170 = ORIENTED_EDGE ( 'NONE', *, *, #284, .T. ) ;
#171 = FILL_AREA_STYLE ('',( #219 ) ) ;
#172 = UNCERTAINTY_MEASURE_WITH_UNIT (LENGTH_MEASURE( 1.000000000000000082E-05 ), #117, 'distance_accuracy_value', 'NONE');
#173 = CARTESIAN_POINT ( 'NONE',  ( 1.318125434942581860E-13, -1.500000000000000222, 37.69999999999998153 ) ) ;
#174 = DIRECTION ( 'NONE',  ( 0.000000000000000000, 1.000000000000000000, 0.000000000000000000 ) ) ;
#175 = FACE_OUTER_BOUND ( 'NONE', #277, .T. ) ;
#176 = CARTESIAN_POINT ( 'NONE',  ( -3.313769370570143840E-31, 0.4499999999999996780, -9.491012693391989759E-17 ) ) ;
#177 = VERTEX_POINT ( 'NONE', #55 ) ;
#178 = APPLICATION_CONTEXT ( 'automotive_design' ) ;
#179 = EDGE_CURVE ( 'NONE', #141, #164, #283, .T. ) ;
#180 = ORIENTED_EDGE ( 'NONE', *, *, #4, .T. ) ;
#181 = DIRECTION ( 'NONE',  ( 3.491481338843133355E-15, -0.000000000000000000, 1.000000000000000000 ) ) ;
#182 = CARTESIAN_POINT ( 'NONE',  ( -0.4499999999999922395, 5.510910596163084009E-17, 2.100000000000000977 ) ) ;
#183 = DIRECTION ( 'NONE',  ( 0.000000000000000000, -1.000000000000000000, 0.000000000000000000 ) ) ;
#184 = DIRECTION ( 'NONE',  ( 0.000000000000000000, 1.000000000000000000, 0.000000000000000000 ) ) ;
#185 = FACE_OUTER_BOUND ( 'NONE', #253, .T. ) ;
#186 = VECTOR ( 'NONE', #146, 1000.000000000000000 ) ;
#187 = AXIS2_PLACEMENT_3D ( 'NONE', #254, #9, #334 ) ;
#188 =( NAMED_UNIT ( * ) SI_UNIT ( $, .STERADIAN. ) SOLID_ANGLE_UNIT ( ) );
#189 = SURFACE_STYLE_FILL_AREA ( #83 ) ;
#190 = ORIENTED_EDGE ( 'NONE', *, *, #286, .F. ) ;
#191 = EDGE_LOOP ( 'NONE', ( #62, #324, #166, #84 ) ) ;
#192 = DIRECTION ( 'NONE',  ( 0.000000000000000000, 0.000000000000000000, 1.000000000000000000 ) ) ;
#193 = CLOSED_SHELL ( 'NONE', ( #313, #104, #165, #32, #79, #7, #239, #17 ) ) ;
#194 = AXIS2_PLACEMENT_3D ( 'NONE', #330, #14, #202 ) ;
#195 = EDGE_CURVE ( 'NONE', #111, #3, #335, .T. ) ;
#196 = VERTEX_POINT ( 'NONE', #50 ) ;
#197 = EDGE_LOOP ( 'NONE', ( #88, #112, #68, #223 ) ) ;
#198 = EDGE_LOOP ( 'NONE', ( #96, #267, #233, #85 ) ) ;
#199 = CIRCLE ( 'NONE', #266, 1.499999999999995781 ) ;
#200 = AXIS2_PLACEMENT_3D ( 'NONE', #11, #37, #119 ) ;
#201 = LINE ( 'NONE', #173, #186 ) ;
#202 = DIRECTION ( 'NONE',  ( 1.000000000000000000, 0.000000000000000000, -3.854941057726241844E-15 ) ) ;
#203 = DIRECTION ( 'NONE',  ( -3.491481338843133355E-15, 1.224646799147353207E-16, -1.000000000000000000 ) ) ;
#204 =( LENGTH_UNIT ( ) NAMED_UNIT ( * ) SI_UNIT ( .MILLI., .METRE. ) );
#205 = DIRECTION ( 'NONE',  ( 3.491481338843133355E-15, -0.000000000000000000, 1.000000000000000000 ) ) ;
#206 = EDGE_CURVE ( 'NONE', #151, #196, #116, .T. ) ;
#207 = CARTESIAN_POINT ( 'NONE',  ( 6.413747168845419518E-31, 1.499999999999995781, 1.836970198721024511E-16 ) ) ;
#208 = EDGE_CURVE ( 'NONE', #333, #111, #341, .T. ) ;
#209 = CARTESIAN_POINT ( 'NONE',  ( 1.316288464743860707E-13, 1.499999999999991118, 37.69999999999998153 ) ) ;
#210 = CARTESIAN_POINT ( 'NONE',  ( 0.000000000000000000, 0.000000000000000000, 0.000000000000000000 ) ) ;
#211 = DIRECTION ( 'NONE',  ( -3.491481338843133355E-15, 1.224646799147353947E-16, -1.000000000000000000 ) ) ;
#212 = DIRECTION ( 'NONE',  ( 3.327098416510788004E-15, 0.3382550599108818945, 0.9410544694355825746 ) ) ;
#213 = DIRECTION ( 'NONE',  ( 3.491481338843133355E-15, -1.224646799147353207E-16, 1.000000000000000000 ) ) ;
#214 = COLOUR_RGB ( '',1.000000000000000000, 1.000000000000000000, 1.000000000000000000 ) ;
#215 = FILL_AREA_STYLE_COLOUR ( '', #20 ) ;
#216 = CARTESIAN_POINT ( 'NONE',  ( 7.332110811570578468E-15, -2.571758278209440971E-16, 2.099999999999999645 ) ) ;
#217 = MANIFOLD_SOLID_BREP ( 'Corps-Déplacer/Copier1[2]', #102 ) ;
#218 = DIRECTION ( 'NONE',  ( 3.491481338843133355E-15, -0.000000000000000000, 1.000000000000000000 ) ) ;
#219 = FILL_AREA_STYLE_COLOUR ( '', #71 ) ;
#220 = PRESENTATION_LAYER_ASSIGNMENT (  '', '', ( #279 ) ) ;
#221 = DIRECTION ( 'NONE',  ( 1.000000000000000000, 0.000000000000000000, -3.854941057726241844E-15 ) ) ;
#222 = CIRCLE ( 'NONE', #316, 1.199999999999985523 ) ;
#223 = ORIENTED_EDGE ( 'NONE', *, *, #134, .F. ) ;
#224 = UNCERTAINTY_MEASURE_WITH_UNIT (LENGTH_MEASURE( 1.000000000000000082E-05 ), #204, 'distance_accuracy_value', 'NONE');
#225 = DIRECTION ( 'NONE',  ( 0.000000000000000000, 1.000000000000000000, 0.000000000000000000 ) ) ;
#226 = CARTESIAN_POINT ( 'NONE',  ( 7.332110811570578468E-15, 0.4499999999999994560, 2.099999999999999645 ) ) ;
#227 = DIRECTION ( 'NONE',  ( 3.491481338843133355E-15, -0.000000000000000000, 1.000000000000000000 ) ) ;
#228 = DIRECTION ( 'NONE',  ( 3.491481338843133355E-15, -1.224646799147353207E-16, 1.000000000000000000 ) ) ;
#229 = ADVANCED_FACE ( 'NONE', ( #280 ), #128, .T. ) ;
#230 = DIRECTION ( 'NONE',  ( -3.491481338843133355E-15, 1.224646799147353207E-16, -1.000000000000000000 ) ) ;
#231 = MANIFOLD_SOLID_BREP ( 'Corps-Déplacer/Copier1[1]', #193 ) ;
#232 =( NAMED_UNIT ( * ) SI_UNIT ( $, .STERADIAN. ) SOLID_ANGLE_UNIT ( ) );
#233 = ORIENTED_EDGE ( 'NONE', *, *, #208, .T. ) ;
#234 = AXIS2_PLACEMENT_3D ( 'NONE', #64, #211, #174 ) ;
#235 = EDGE_CURVE ( 'NONE', #151, #242, #319, .T. ) ;
#236 = SURFACE_STYLE_FILL_AREA ( #343 ) ;
#237 = DIRECTION ( 'NONE',  ( 0.000000000000000000, -1.000000000000000000, 0.000000000000000000 ) ) ;
#238 = DIRECTION ( 'NONE',  ( 4.275831445896958607E-31, 1.000000000000000000, 1.224646799147353207E-16 ) ) ;
#239 = ADVANCED_FACE ( 'NONE', ( #147 ), #297, .T. ) ;
#240 =( NAMED_UNIT ( * ) PLANE_ANGLE_UNIT ( ) SI_UNIT ( $, .RADIAN. ) );
#241 = STYLED_ITEM ( 'NONE', ( #262 ), #231 ) ;
#242 = VERTEX_POINT ( 'NONE', #43 ) ;
#243 = CIRCLE ( 'NONE', #125, 0.4499999999999996780 ) ;
#244 =( NAMED_UNIT ( * ) PLANE_ANGLE_UNIT ( ) SI_UNIT ( $, .RADIAN. ) );
#245 = ORIENTED_EDGE ( 'NONE', *, *, #132, .F. ) ;
#246 = DIRECTION ( 'NONE',  ( 3.491481338843133355E-15, -1.224646799147353207E-16, 1.000000000000000000 ) ) ;
#247 = AXIS2_PLACEMENT_3D ( 'NONE', #265, #192, #160 ) ;
#248 = FACE_OUTER_BOUND ( 'NONE', #38, .T. ) ;
#249 = DIRECTION ( 'NONE',  ( 0.000000000000000000, -1.000000000000000000, 0.000000000000000000 ) ) ;
#250 = EDGE_CURVE ( 'NONE', #141, #242, #86, .T. ) ;
#251 = CARTESIAN_POINT ( 'NONE',  ( 0.000000000000000000, 0.000000000000000000, 0.000000000000000000 ) ) ;
#252 = DIRECTION ( 'NONE',  ( 3.491481338843133355E-15, -0.000000000000000000, 1.000000000000000000 ) ) ;
#253 = EDGE_LOOP ( 'NONE', ( #264, #57, #290, #289 ) ) ;
#254 = CARTESIAN_POINT ( 'NONE',  ( 7.332110811570578468E-15, -2.571758278209440971E-16, 2.099999999999999645 ) ) ;
#255 = AXIS2_PLACEMENT_3D ( 'NONE', #108, #161, #221 ) ;
#256 = DIRECTION ( 'NONE',  ( 3.285674118869261421E-15, -0.3382550599108820610, 0.9410544694355824635 ) ) ;
#257 = DIRECTION ( 'NONE',  ( 3.491481338843133355E-15, -0.000000000000000000, 1.000000000000000000 ) ) ;
#258 = DIRECTION ( 'NONE',  ( 3.491481338843133355E-15, -1.224646799147353207E-16, 1.000000000000000000 ) ) ;
#259 = PRESENTATION_LAYER_ASSIGNMENT (  '', '', ( #281 ) ) ;
#260 = ADVANCED_FACE ( 'NONE', ( #299 ), #327, .F. ) ;
#261 = CARTESIAN_POINT ( 'NONE',  ( 0.000000000000000000, 0.000000000000000000, 0.000000000000000000 ) ) ;
#262 = PRESENTATION_STYLE_ASSIGNMENT (( #287 ) ) ;
#263 = APPLICATION_PROTOCOL_DEFINITION ( 'draft international standard', 'automotive_design', 1998, #178 ) ;
#264 = ORIENTED_EDGE ( 'NONE', *, *, #132, .T. ) ;
#265 = CARTESIAN_POINT ( 'NONE',  ( 0.000000000000000000, 0.000000000000000000, 0.000000000000000000 ) ) ;
#266 = AXIS2_PLACEMENT_3D ( 'NONE', #153, #78, #282 ) ;
#267 = ORIENTED_EDGE ( 'NONE', *, *, #94, .T. ) ;
#268 = AXIS2_PLACEMENT_3D ( 'NONE', #99, #228, #95 ) ;
#269 = MECHANICAL_DESIGN_GEOMETRIC_PRESENTATION_REPRESENTATION (  '', ( #281 ), #274 ) ;
#270 = ORIENTED_EDGE ( 'NONE', *, *, #179, .F. ) ;
#271 = FACE_OUTER_BOUND ( 'NONE', #321, .T. ) ;
#272 = VERTEX_POINT ( 'NONE', #144 ) ;
#273 = FACE_OUTER_BOUND ( 'NONE', #143, .T. ) ;
#274 =( GEOMETRIC_REPRESENTATION_CONTEXT ( 3 ) GLOBAL_UNCERTAINTY_ASSIGNED_CONTEXT ( ( #89 ) ) GLOBAL_UNIT_ASSIGNED_CONTEXT ( ( #122, #325, #232 ) ) REPRESENTATION_CONTEXT ( 'NONE', 'WORKASPACE' ) );
#275 = ORIENTED_EDGE ( 'NONE', *, *, #155, .T. ) ;
#276 = FACE_OUTER_BOUND ( 'NONE', #60, .T. ) ;
#277 = EDGE_LOOP ( 'NONE', ( #329, #109 ) ) ;
#278 = DIRECTION ( 'NONE',  ( 0.000000000000000000, 1.000000000000000000, 0.000000000000000000 ) ) ;
#279 = STYLED_ITEM ( 'NONE', ( #105 ), #217 ) ;
#280 = FACE_OUTER_BOUND ( 'NONE', #198, .T. ) ;
#281 = STYLED_ITEM ( 'NONE', ( #120 ), #82 ) ;
#282 = DIRECTION ( 'NONE',  ( 3.907985046680551022E-14, -1.000000000000000000, 0.000000000000000000 ) ) ;
#283 = LINE ( 'NONE', #159, #53 ) ;
#284 = EDGE_CURVE ( 'NONE', #87, #3, #91, .T. ) ;
#285 = CYLINDRICAL_SURFACE ( 'NONE', #107, 1.499999999999995781 ) ;
#286 = EDGE_CURVE ( 'NONE', #164, #138, #24, .T. ) ;
#287 = SURFACE_STYLE_USAGE ( .BOTH. , #1 ) ;
#288 = ORIENTED_EDGE ( 'NONE', *, *, #235, .F. ) ;
#289 = ORIENTED_EDGE ( 'NONE', *, *, #47, .F. ) ;
#290 = ORIENTED_EDGE ( 'NONE', *, *, #44, .F. ) ;
#291 = APPLICATION_PROTOCOL_DEFINITION ( 'draft international standard', 'automotive_design', 1998, #157 ) ;
#292 = ORIENTED_EDGE ( 'NONE', *, *, #250, .T. ) ;
#293 = ADVANCED_FACE ( 'NONE', ( #273 ), #304, .T. ) ;
#294 = ORIENTED_EDGE ( 'NONE', *, *, #208, .F. ) ;
#295 = CIRCLE ( 'NONE', #307, 0.4499999999999996780 ) ;
#296 = SURFACE_STYLE_USAGE ( .BOTH. , #113 ) ;
#297 = CONICAL_SURFACE ( 'NONE', #187, 0.4499999999999997335, 0.3450620389298191260 ) ;
#298 = CARTESIAN_POINT ( 'NONE',  ( 1.753139009425638368E-14, -6.149183879255239333E-16, 5.021189687946385760 ) ) ;
#299 = FACE_OUTER_BOUND ( 'NONE', #42, .T. ) ;
#300 = LINE ( 'NONE', #207, #110 ) ;
#301 = ORIENTED_EDGE ( 'NONE', *, *, #47, .T. ) ;
#302 = CARTESIAN_POINT ( 'NONE',  ( 1.316288464743860707E-13, -4.616918432785519503E-15, 37.69999999999998153 ) ) ;
#303 = DIRECTION ( 'NONE',  ( -3.491481338843133355E-15, 1.224646799147353207E-16, -1.000000000000000000 ) ) ;
#304 = CYLINDRICAL_SURFACE ( 'NONE', #194, 0.4499999999999995670 ) ;
#305 = CARTESIAN_POINT ( 'NONE',  ( -0.4499999999999996780, 5.510910596163130847E-17, 1.571166602479408827E-15 ) ) ;
#306 = DIRECTION ( 'NONE',  ( -3.491481338843133355E-15, 1.224646799147353947E-16, -1.000000000000000000 ) ) ;
#307 = AXIS2_PLACEMENT_3D ( 'NONE', #114, #181, #73 ) ;
#308 = CARTESIAN_POINT ( 'NONE',  ( 0.4500000000000067835, 0.000000000000000000, 2.099999999999997868 ) ) ;
#309 = CONICAL_SURFACE ( 'NONE', #234, 1.499999999999995781, 0.7853981633974392862 ) ;
#310 = EDGE_CURVE ( 'NONE', #196, #151, #222, .T. ) ;
#311 = CARTESIAN_POINT ( 'NONE',  ( 1.753139009425638368E-14, 1.499999999999992895, 5.021189687946385760 ) ) ;
#312 = DIRECTION ( 'NONE',  ( 1.000000000000000000, 0.000000000000000000, -3.491481338843133355E-15 ) ) ;
#313 = ADVANCED_FACE ( 'NONE', ( #39 ), #309, .T. ) ;
#314 = CARTESIAN_POINT ( 'NONE',  ( 1.326762908760390423E-13, -4.653657836759941941E-15, 38.00000000000000000 ) ) ;
#315 = AXIS2_PLACEMENT_3D ( 'NONE', #101, #218, #129 ) ;
#316 = AXIS2_PLACEMENT_3D ( 'NONE', #100, #246, #249 ) ;
#317 = PRODUCT_DEFINITION_SHAPE ( 'NONE', 'NONE',  #167 ) ;
#318 = PRODUCT_CONTEXT ( 'NONE', #157, 'mechanical' ) ;
#319 = LINE ( 'NONE', #209, #98 ) ;
#320 = ORIENTED_EDGE ( 'NONE', *, *, #16, .T. ) ;
#321 = EDGE_LOOP ( 'NONE', ( #33, #275 ) ) ;
#322 = AXIS2_PLACEMENT_3D ( 'NONE', #216, #213, #183 ) ;
#323 = ADVANCED_FACE ( 'NONE', ( #271 ), #46, .F. ) ;
#324 = ORIENTED_EDGE ( 'NONE', *, *, #139, .F. ) ;
#325 =( NAMED_UNIT ( * ) PLANE_ANGLE_UNIT ( ) SI_UNIT ( $, .RADIAN. ) );
#326 = FACE_OUTER_BOUND ( 'NONE', #148, .T. ) ;
#327 = PLANE ( 'NONE',  #31 ) ;
#328 = VECTOR ( 'NONE', #212, 1000.000000000000114 ) ;
#329 = ORIENTED_EDGE ( 'NONE', *, *, #206, .T. ) ;
#330 = CARTESIAN_POINT ( 'NONE',  ( 7.332110811570578468E-15, 0.000000000000000000, 2.099999999999999645 ) ) ;
#331 = DIRECTION ( 'NONE',  ( 4.275831445896958607E-31, 1.000000000000000000, 1.224646799147353207E-16 ) ) ;
#332 =( NAMED_UNIT ( * ) PLANE_ANGLE_UNIT ( ) SI_UNIT ( $, .RADIAN. ) );
#333 = VERTEX_POINT ( 'NONE', #93 ) ;
#334 = DIRECTION ( 'NONE',  ( 0.000000000000000000, -1.000000000000000000, 0.000000000000000000 ) ) ;
#335 = CIRCLE ( 'NONE', #315, 0.4499999999999994560 ) ;
#336 = PLANE ( 'NONE',  #268 ) ;
#337 = CARTESIAN_POINT ( 'NONE',  ( 1.753139009425638368E-14, -6.149183879255239333E-16, 5.021189687946385760 ) ) ;
#338 = FACE_OUTER_BOUND ( 'NONE', #197, .T. ) ;
#339 = AXIS2_PLACEMENT_3D ( 'NONE', #21, #257, #25 ) ;
#340 =( GEOMETRIC_REPRESENTATION_CONTEXT ( 3 ) GLOBAL_UNCERTAINTY_ASSIGNED_CONTEXT ( ( #224 ) ) GLOBAL_UNIT_ASSIGNED_CONTEXT ( ( #204, #332, #149 ) ) REPRESENTATION_CONTEXT ( 'NONE', 'WORKASPACE' ) );
#341 = LINE ( 'NONE', #27, #40 ) ;
#342 = SURFACE_STYLE_USAGE ( .BOTH. , #133 ) ;
#343 = FILL_AREA_STYLE ('',( #215 ) ) ;
ENDSEC;
END-ISO-10303-21;
