ISO-10303-21;
HEADER;
FILE_DESCRIPTION (( 'STEP AP203' ),
    '1' );
FILE_NAME ('56983.step',
    '2021-11-12T07:08:21',
    ( '' ),
    ( '' ),
    'SwSTEP 2.0',
    'SolidWorks 2019',
    '' );
FILE_SCHEMA (( 'CONFIG_CONTROL_DESIGN' ));
ENDSEC;

DATA;
#1 = PERSON_AND_ORGANIZATION ( #228, #6 ) ;
#2 = DIRECTION ( 'NONE',  ( 3.491481338843133355E-15, -1.223397583181748052E-16, 1.000000000000000000 ) ) ;
#3 = CIRCLE ( 'NONE', #32, 2.250000000000000000 ) ;
#4 = CYLINDRICAL_SURFACE ( 'NONE', #139, 3.000000000000000888 ) ;
#5 = AXIS2_PLACEMENT_3D ( 'NONE', #8, #182, #152 ) ;
#6 = ORGANIZATION ( 'UNSPECIFIED', 'UNSPECIFIED', '' ) ;
#7 = CC_DESIGN_PERSON_AND_ORGANIZATION_ASSIGNMENT ( #50, #184, ( #149 ) ) ;
#8 = CARTESIAN_POINT ( 'NONE',  ( 1.745740669421566678E-13, 1.799711739194221740E-32, 50.00000000000000000 ) ) ;
#9 = DIRECTION ( 'NONE',  ( 4.275831445896958607E-31, 1.000000000000000000, 1.224646799147353207E-16 ) ) ;
#10 = AXIS2_PLACEMENT_3D ( 'NONE', #154, #214, #193 ) ;
#11 = CC_DESIGN_DATE_AND_TIME_ASSIGNMENT ( #31, #218, ( #231 ) ) ;
#12 = DIRECTION ( 'NONE',  ( 1.000000000000000000, 0.0000000000000000000, -3.491481338843133355E-15 ) ) ;
#13 = FACE_OUTER_BOUND ( 'NONE', #224, .T. ) ;
#14 = APPLICATION_PROTOCOL_DEFINITION ( 'international standard', 'config_control_design', 1994, #119 ) ;
#15 = DATE_AND_TIME ( #241, #89 ) ;
#16 = ORIENTED_EDGE ( 'NONE', *, *, #131, .T. ) ;
#17 = LOCAL_TIME ( 8, 8, 21.00000000000000000, #38 ) ;
#18 = PERSON_AND_ORGANIZATION ( #228, #6 ) ;
#19 = FACE_BOUND ( 'NONE', #189, .T. ) ;
#20 = AXIS2_PLACEMENT_3D ( 'NONE', #114, #25, #157 ) ;
#21 = APPROVAL ( #126, 'UNSPECIFIED' ) ;
#22 = CARTESIAN_POINT ( 'NONE',  ( 3.491481338843133986E-14, 2.249639673992784496E-32, 10.00000000000000178 ) ) ;
#23 = CARTESIAN_POINT ( 'NONE',  ( 1.745740669421566678E-13, 2.399999999999995914, 50.00000000000000000 ) ) ;
#24 = DESIGN_CONTEXT ( 'detailed design', #213, 'design' ) ;
#25 = DIRECTION ( 'NONE',  ( 3.491481338843133355E-15, -0.0000000000000000000, 1.000000000000000000 ) ) ;
#26 = ADVANCED_FACE ( 'NONE', ( #19, #85 ), #108, .T. ) ;
#27 = PLANE ( 'NONE',  #177 ) ;
#28 = DIRECTION ( 'NONE',  ( 3.491481338843133355E-15, -1.223397583181748052E-16, 1.000000000000000000 ) ) ;
#29 = CARTESIAN_POINT ( 'NONE',  ( 4.672278441155445111E-14, 2.999999999999998668, 13.38193731461717206 ) ) ;
#30 = DIRECTION ( 'NONE',  ( 3.491481338843133355E-15, -0.0000000000000000000, 1.000000000000000000 ) ) ;
#31 = DATE_AND_TIME ( #71, #17 ) ;
#32 = AXIS2_PLACEMENT_3D ( 'NONE', #132, #28, #96 ) ;
#33 = CC_DESIGN_APPROVAL ( #55, ( #149 ) ) ;
#34 = DIRECTION ( 'NONE',  ( 1.000000000000000000, 0.0000000000000000000, 0.0000000000000000000 ) ) ;
#35 = COORDINATED_UNIVERSAL_TIME_OFFSET ( 1, 0, .AHEAD. ) ;
#36 = ORIENTED_EDGE ( 'NONE', *, *, #221, .F. ) ;
#37 = EDGE_LOOP ( 'NONE', ( #162 ) ) ;
#38 = COORDINATED_UNIVERSAL_TIME_OFFSET ( 1, 0, .AHEAD. ) ;
#39 = CC_DESIGN_PERSON_AND_ORGANIZATION_ASSIGNMENT ( #99, #106, ( #151 ) ) ;
#40 = LOCAL_TIME ( 8, 8, 21.00000000000000000, #202 ) ;
#41 = ADVANCED_FACE ( 'NONE', ( #164, #54 ), #150, .F. ) ;
#42 = DIRECTION ( 'NONE',  ( 3.491481338843133355E-15, -1.224646799147353207E-16, 1.000000000000000000 ) ) ;
#43 = CARTESIAN_POINT ( 'NONE',  ( 1.724791781388508004E-13, 2.999999999999995559, 49.39999999999999858 ) ) ;
#44 = VERTEX_POINT ( 'NONE', #23 ) ;
#45 = EDGE_CURVE ( 'NONE', #111, #111, #3, .T. ) ;
#46 = VERTEX_POINT ( 'NONE', #136 ) ;
#47 = AXIS2_PLACEMENT_3D ( 'NONE', #22, #180, #137 ) ;
#48 = DATE_AND_TIME ( #226, #68 ) ;
#49 = DIRECTION ( 'NONE',  ( -4.329673216658308606E-31, -1.000000000000000000, -1.223397583181748052E-16 ) ) ;
#50 = PERSON_AND_ORGANIZATION ( #228, #6 ) ;
#51 = ORIENTED_EDGE ( 'NONE', *, *, #205, .F. ) ;
#52 = PRODUCT_DEFINITION_SHAPE ( 'NONE', 'NONE',  #231 ) ;
#53 = EDGE_LOOP ( 'NONE', ( #170 ) ) ;
#54 = FACE_OUTER_BOUND ( 'NONE', #169, .T. ) ;
#55 = APPROVAL ( #183, 'UNSPECIFIED' ) ;
#56 = AXIS2_PLACEMENT_3D ( 'NONE', #87, #201, #34 ) ;
#57 = DIRECTION ( 'NONE',  ( 0.0000000000000000000, 1.000000000000000000, 0.0000000000000000000 ) ) ;
#58 = CARTESIAN_POINT ( 'NONE',  ( 3.491481338843133986E-14, -2.250000000000001332, 10.00000000000000178 ) ) ;
#59 = DIRECTION ( 'NONE',  ( -3.491481338843133355E-15, 1.224646799147353207E-16, -1.000000000000000000 ) ) ;
#60 = DIRECTION ( 'NONE',  ( 4.275831445896958607E-31, 1.000000000000000000, 1.224646799147353207E-16 ) ) ;
#61 =( NAMED_UNIT ( * ) SI_UNIT ( $, .STERADIAN. ) SOLID_ANGLE_UNIT ( ) );
#62 = CIRCLE ( 'NONE', #143, 2.400000000000002132 ) ;
#63 = DATE_AND_TIME ( #124, #40 ) ;
#64 = APPROVAL_DATE_TIME ( #15, #55 ) ;
#65 = SHAPE_DEFINITION_REPRESENTATION ( #52, #97 ) ;
#66 = ORIENTED_EDGE ( 'NONE', *, *, #205, .T. ) ;
#67 = EDGE_LOOP ( 'NONE', ( #86 ) ) ;
#68 = LOCAL_TIME ( 8, 8, 21.00000000000000000, #141 ) ;
#69 = APPROVAL_DATE_TIME ( #48, #21 ) ;
#70 = ORIENTED_EDGE ( 'NONE', *, *, #173, .T. ) ;
#71 = CALENDAR_DATE ( 2021, 12, 11 ) ;
#72 = PRODUCT ( '56983', '56983', '', ( #204 ) ) ;
#73 = CIRCLE ( 'NONE', #153, 2.250000000000000000 ) ;
#74 = CC_DESIGN_PERSON_AND_ORGANIZATION_ASSIGNMENT ( #167, #186, ( #151 ) ) ;
#75 = FACE_OUTER_BOUND ( 'NONE', #102, .T. ) ;
#76 = UNCERTAINTY_MEASURE_WITH_UNIT (LENGTH_MEASURE( 1.000000000000000082E-05 ), #197, 'distance_accuracy_value', 'NONE');
#77 = CARTESIAN_POINT ( 'NONE',  ( 1.745740669421566678E-13, -6.123233995736766085E-15, 50.00000000000000000 ) ) ;
#78 = DIRECTION ( 'NONE',  ( 0.0000000000000000000, 1.000000000000000000, 0.0000000000000000000 ) ) ;
#79 = CARTESIAN_POINT ( 'NONE',  ( 0.0000000000000000000, 0.0000000000000000000, 0.0000000000000000000 ) ) ;
#80 = ADVANCED_FACE ( 'NONE', ( #175, #135 ), #172, .T. ) ;
#81 = VERTEX_POINT ( 'NONE', #43 ) ;
#82 = APPROVAL_ROLE ( '' ) ;
#83 = LOCAL_TIME ( 8, 8, 21.00000000000000000, #35 ) ;
#84 = EDGE_LOOP ( 'NONE', ( #51 ) ) ;
#85 = FACE_OUTER_BOUND ( 'NONE', #225, .T. ) ;
#86 = ORIENTED_EDGE ( 'NONE', *, *, #173, .F. ) ;
#87 = CARTESIAN_POINT ( 'NONE',  ( 0.0000000000000000000, 0.0000000000000000000, 0.0000000000000000000 ) ) ;
#88 = AXIS2_PLACEMENT_3D ( 'NONE', #110, #178, #49 ) ;
#89 = LOCAL_TIME ( 8, 8, 21.00000000000000000, #100 ) ;
#90 = DIRECTION ( 'NONE',  ( -4.271469831664862602E-31, -1.000000000000000000, -1.223397583181747805E-16 ) ) ;
#91 = ADVANCED_FACE ( 'NONE', ( #13 ), #219, .T. ) ;
#92 = PLANE ( 'NONE',  #47 ) ;
#93 = CARTESIAN_POINT ( 'NONE',  ( 1.724791781388508004E-13, -6.049755187787925154E-15, 49.39999999999999858 ) ) ;
#94 = DIRECTION ( 'NONE',  ( -3.491481338843133355E-15, 1.224646799147353207E-16, -1.000000000000000000 ) ) ;
#95 = DIRECTION ( 'NONE',  ( -3.491481338843133355E-15, 1.224646799147353207E-16, -1.000000000000000000 ) ) ;
#96 = DIRECTION ( 'NONE',  ( 0.0000000000000000000, -1.000000000000000000, 0.0000000000000000000 ) ) ;
#97 = ADVANCED_BREP_SHAPE_REPRESENTATION ( '56983', ( #227, #129, #56 ), #217 ) ;
#98 = DIRECTION ( 'NONE',  ( 1.000000000000000000, 0.0000000000000000000, -3.493540333564402431E-15 ) ) ;
#99 = PERSON_AND_ORGANIZATION ( #228, #6 ) ;
#100 = COORDINATED_UNIVERSAL_TIME_OFFSET ( 1, 0, .AHEAD. ) ;
#101 = DIRECTION ( 'NONE',  ( -3.491481338843133355E-15, 1.224646799147353207E-16, -1.000000000000000000 ) ) ;
#102 = EDGE_LOOP ( 'NONE', ( #66 ) ) ;
#103 = CALENDAR_DATE ( 2021, 12, 11 ) ;
#104 = EDGE_LOOP ( 'NONE', ( #70 ) ) ;
#105 = CIRCLE ( 'NONE', #174, 3.000000000000001776 ) ;
#106 = PERSON_AND_ORGANIZATION_ROLE ( 'creator' ) ;
#107 = DIRECTION ( 'NONE',  ( 0.0000000000000000000, -1.000000000000000000, 0.0000000000000000000 ) ) ;
#108 = CONICAL_SURFACE ( 'NONE', #203, 2.250000000000000444, 0.7853981633974495002 ) ;
#109 = AXIS2_PLACEMENT_3D ( 'NONE', #156, #235, #12 ) ;
#110 = CARTESIAN_POINT ( 'NONE',  ( 3.491481338843133355E-14, -1.734723475976807094E-15, 10.00000000000000000 ) ) ;
#111 = VERTEX_POINT ( 'NONE', #58 ) ;
#112 = CLOSED_SHELL ( 'NONE', ( #148, #80, #155, #41, #210 ) ) ;
#113 = VERTEX_POINT ( 'NONE', #212 ) ;
#114 = CARTESIAN_POINT ( 'NONE',  ( 3.491481338843133355E-16, 0.0000000000000000000, 0.1000000000000000056 ) ) ;
#115 = DIRECTION ( 'NONE',  ( -3.491481338843133355E-15, 1.224646799147353207E-16, -1.000000000000000000 ) ) ;
#116 = CLOSED_SHELL ( 'NONE', ( #209, #185, #26, #91 ) ) ;
#117 = ORIENTED_EDGE ( 'NONE', *, *, #192, .T. ) ;
#118 = APPROVAL_PERSON_ORGANIZATION ( #128, #229, #206 ) ;
#119 = APPLICATION_CONTEXT ( 'configuration controlled 3d designs of mechanical parts and assemblies' ) ;
#120 = PERSON_AND_ORGANIZATION ( #228, #6 ) ;
#121 = AXIS2_PLACEMENT_3D ( 'NONE', #234, #94, #198 ) ;
#122 = APPROVAL_PERSON_ORGANIZATION ( #1, #21, #82 ) ;
#123 = EDGE_LOOP ( 'NONE', ( #36 ) ) ;
#124 = CALENDAR_DATE ( 2021, 12, 11 ) ;
#125 = ORIENTED_EDGE ( 'NONE', *, *, #140, .F. ) ;
#126 = APPROVAL_STATUS ( 'not_yet_approved' ) ;
#127 = CC_DESIGN_DATE_AND_TIME_ASSIGNMENT ( #159, #146, ( #149 ) ) ;
#128 = PERSON_AND_ORGANIZATION ( #228, #6 ) ;
#129 = MANIFOLD_SOLID_BREP ( 'Corps-Déplacer/Copier1[2]', #116 ) ;
#130 = CIRCLE ( 'NONE', #109, 2.149999999999999911 ) ;
#131 = EDGE_CURVE ( 'NONE', #211, #211, #238, .T. ) ;
#132 = CARTESIAN_POINT ( 'NONE',  ( 3.491481338843133986E-14, -1.223397583181748348E-15, 10.00000000000000178 ) ) ;
#133 = FACE_OUTER_BOUND ( 'NONE', #222, .T. ) ;
#134 = CYLINDRICAL_SURFACE ( 'NONE', #196, 2.250000000000000444 ) ;
#135 = FACE_OUTER_BOUND ( 'NONE', #67, .T. ) ;
#136 = CARTESIAN_POINT ( 'NONE',  ( 3.491481338843133986E-14, -2.250000000000001332, 10.00000000000000178 ) ) ;
#137 = DIRECTION ( 'NONE',  ( -4.275831445896958607E-31, -1.000000000000000000, -1.224646799147353207E-16 ) ) ;
#138 = CARTESIAN_POINT ( 'NONE',  ( 2.250000000000000888, 0.0000000000000000000, 0.09999999999999215072 ) ) ;
#139 = AXIS2_PLACEMENT_3D ( 'NONE', #147, #59, #9 ) ;
#140 = EDGE_CURVE ( 'NONE', #46, #46, #73, .T. ) ;
#141 = COORDINATED_UNIVERSAL_TIME_OFFSET ( 1, 0, .AHEAD. ) ;
#142 = ORIENTED_EDGE ( 'NONE', *, *, #45, .T. ) ;
#143 = AXIS2_PLACEMENT_3D ( 'NONE', #77, #95, #57 ) ;
#144 = ORIENTED_EDGE ( 'NONE', *, *, #192, .F. ) ;
#145 = SECURITY_CLASSIFICATION_LEVEL ( 'unclassified' ) ;
#146 = DATE_TIME_ROLE ( 'classification_date' ) ;
#147 = CARTESIAN_POINT ( 'NONE',  ( 0.0000000000000000000, 0.0000000000000000000, 0.0000000000000000000 ) ) ;
#148 = ADVANCED_FACE ( 'NONE', ( #191, #75 ), #4, .T. ) ;
#149 = SECURITY_CLASSIFICATION ( '', '', #145 ) ;
#150 = TOROIDAL_SURFACE ( 'NONE', #88, 10.25000000000000000, 8.000000000000000000 ) ;
#151 = PRODUCT_DEFINITION_FORMATION_WITH_SPECIFIED_SOURCE ( 'ANY', '', #72, .NOT_KNOWN. ) ;
#152 = DIRECTION ( 'NONE',  ( 4.275831445896958607E-31, 1.000000000000000000, 1.224646799147353207E-16 ) ) ;
#153 = AXIS2_PLACEMENT_3D ( 'NONE', #171, #2, #107 ) ;
#154 = CARTESIAN_POINT ( 'NONE',  ( 4.672278441155445111E-14, -2.148468869694288975E-15, 13.38193731461717206 ) ) ;
#155 = ADVANCED_FACE ( 'NONE', ( #239 ), #179, .F. ) ;
#156 = CARTESIAN_POINT ( 'NONE',  ( -4.731839565957903391E-32, 0.0000000000000000000, -1.355252715606880543E-17 ) ) ;
#157 = DIRECTION ( 'NONE',  ( 1.000000000000000000, 0.0000000000000000000, -3.493540333564402431E-15 ) ) ;
#158 = DIRECTION ( 'NONE',  ( 3.491481338843133355E-15, -1.223397583181748052E-16, 1.000000000000000000 ) ) ;
#159 = DATE_AND_TIME ( #103, #83 ) ;
#160 = APPROVAL_DATE_TIME ( #63, #229 ) ;
#161 = EDGE_LOOP ( 'NONE', ( #125 ) ) ;
#162 = ORIENTED_EDGE ( 'NONE', *, *, #221, .T. ) ;
#163 = PERSON_AND_ORGANIZATION_ROLE ( 'design_owner' ) ;
#164 = FACE_OUTER_BOUND ( 'NONE', #84, .T. ) ;
#165 = ORIENTED_EDGE ( 'NONE', *, *, #131, .F. ) ;
#166 = ORIENTED_EDGE ( 'NONE', *, *, #140, .T. ) ;
#167 = PERSON_AND_ORGANIZATION ( #228, #6 ) ;
#168 = CARTESIAN_POINT ( 'NONE',  ( 3.491481338843133355E-16, 0.0000000000000000000, 0.1000000000000000056 ) ) ;
#169 = EDGE_LOOP ( 'NONE', ( #142 ) ) ;
#170 = ORIENTED_EDGE ( 'NONE', *, *, #45, .F. ) ;
#171 = CARTESIAN_POINT ( 'NONE',  ( 3.491481338843133986E-14, -1.223397583181748348E-15, 10.00000000000000178 ) ) ;
#172 = CONICAL_SURFACE ( 'NONE', #121, 3.000000000000001776, 0.7853981633974453924 ) ;
#173 = EDGE_CURVE ( 'NONE', #81, #81, #105, .T. ) ;
#174 = AXIS2_PLACEMENT_3D ( 'NONE', #93, #115, #78 ) ;
#175 = FACE_BOUND ( 'NONE', #37, .T. ) ;
#176 = PRODUCT_RELATED_PRODUCT_CATEGORY ( 'detail', '', ( #72 ) ) ;
#177 = AXIS2_PLACEMENT_3D ( 'NONE', #233, #42, #236 ) ;
#178 = DIRECTION ( 'NONE',  ( 3.491481338843133355E-15, -1.223397583181748052E-16, 1.000000000000000000 ) ) ;
#179 = PLANE ( 'NONE',  #5 ) ;
#180 = DIRECTION ( 'NONE',  ( 3.491481338843133355E-15, -1.224646799147353207E-16, 1.000000000000000000 ) ) ;
#181 = CC_DESIGN_SECURITY_CLASSIFICATION ( #149, ( #151 ) ) ;
#182 = DIRECTION ( 'NONE',  ( -3.491481338843133355E-15, 1.224646799147353207E-16, -1.000000000000000000 ) ) ;
#183 = APPROVAL_STATUS ( 'not_yet_approved' ) ;
#184 = PERSON_AND_ORGANIZATION_ROLE ( 'classification_officer' ) ;
#185 = ADVANCED_FACE ( 'NONE', ( #133 ), #92, .T. ) ;
#186 = PERSON_AND_ORGANIZATION_ROLE ( 'design_supplier' ) ;
#187 = CIRCLE ( 'NONE', #10, 3.000000000000000888 ) ;
#188 = AXIS2_PLACEMENT_3D ( 'NONE', #220, #101, #60 ) ;
#189 = EDGE_LOOP ( 'NONE', ( #117 ) ) ;
#190 = APPROVAL_STATUS ( 'not_yet_approved' ) ;
#191 = FACE_OUTER_BOUND ( 'NONE', #104, .T. ) ;
#192 = EDGE_CURVE ( 'NONE', #113, #113, #130, .T. ) ;
#193 = DIRECTION ( 'NONE',  ( 0.0000000000000000000, 1.000000000000000000, 0.0000000000000000000 ) ) ;
#194 = VERTEX_POINT ( 'NONE', #29 ) ;
#195 =( NAMED_UNIT ( * ) PLANE_ANGLE_UNIT ( ) SI_UNIT ( $, .RADIAN. ) );
#196 = AXIS2_PLACEMENT_3D ( 'NONE', #79, #158, #90 ) ;
#197 =( LENGTH_UNIT ( ) NAMED_UNIT ( * ) SI_UNIT ( .MILLI., .METRE. ) );
#198 = DIRECTION ( 'NONE',  ( 0.0000000000000000000, 1.000000000000000000, 0.0000000000000000000 ) ) ;
#199 = CC_DESIGN_PERSON_AND_ORGANIZATION_ASSIGNMENT ( #120, #163, ( #72 ) ) ;
#200 = FACE_OUTER_BOUND ( 'NONE', #161, .T. ) ;
#201 = DIRECTION ( 'NONE',  ( 0.0000000000000000000, 0.0000000000000000000, 1.000000000000000000 ) ) ;
#202 = COORDINATED_UNIVERSAL_TIME_OFFSET ( 1, 0, .AHEAD. ) ;
#203 = AXIS2_PLACEMENT_3D ( 'NONE', #168, #30, #98 ) ;
#204 = MECHANICAL_CONTEXT ( 'NONE', #119, 'mechanical' ) ;
#205 = EDGE_CURVE ( 'NONE', #194, #194, #187, .T. ) ;
#206 = APPROVAL_ROLE ( '' ) ;
#207 = APPLICATION_PROTOCOL_DEFINITION ( 'international standard', 'config_control_design', 1994, #213 ) ;
#208 = CC_DESIGN_APPROVAL ( #21, ( #151 ) ) ;
#209 = ADVANCED_FACE ( 'NONE', ( #200, #216 ), #134, .T. ) ;
#210 = ADVANCED_FACE ( 'NONE', ( #232 ), #27, .F. ) ;
#211 = VERTEX_POINT ( 'NONE', #138 ) ;
#212 = CARTESIAN_POINT ( 'NONE',  ( 2.149999999999999911, 0.0000000000000000000, -7.520237405668805519E-15 ) ) ;
#213 = APPLICATION_CONTEXT ( 'configuration controlled 3d designs of mechanical parts and assemblies' ) ;
#214 = DIRECTION ( 'NONE',  ( 3.491481338843133355E-15, -1.223397583181748052E-16, 1.000000000000000000 ) ) ;
#215 = APPROVAL_PERSON_ORGANIZATION ( #18, #55, #240 ) ;
#216 = FACE_OUTER_BOUND ( 'NONE', #243, .T. ) ;
#217 =( GEOMETRIC_REPRESENTATION_CONTEXT ( 3 ) GLOBAL_UNCERTAINTY_ASSIGNED_CONTEXT ( ( #76 ) ) GLOBAL_UNIT_ASSIGNED_CONTEXT ( ( #197, #195, #61 ) ) REPRESENTATION_CONTEXT ( 'NONE', 'WORKASPACE' ) );
#218 = DATE_TIME_ROLE ( 'creation_date' ) ;
#219 = PLANE ( 'NONE',  #188 ) ;
#220 = CARTESIAN_POINT ( 'NONE',  ( -6.413747168845438786E-31, 2.249639673992786412E-32, -1.836970198721029934E-16 ) ) ;
#221 = EDGE_CURVE ( 'NONE', #44, #44, #62, .T. ) ;
#222 = EDGE_LOOP ( 'NONE', ( #166 ) ) ;
#223 = PERSON_AND_ORGANIZATION ( #228, #6 ) ;
#224 = EDGE_LOOP ( 'NONE', ( #144 ) ) ;
#225 = EDGE_LOOP ( 'NONE', ( #165 ) ) ;
#226 = CALENDAR_DATE ( 2021, 12, 11 ) ;
#227 = MANIFOLD_SOLID_BREP ( 'Corps-Déplacer/Copier1[1]', #112 ) ;
#228 = PERSON ( 'UNSPECIFIED', 'UNSPECIFIED', 'UNSPECIFIED', ('UNSPECIFIED'), ('UNSPECIFIED'), ('UNSPECIFIED') ) ;
#229 = APPROVAL ( #190, 'UNSPECIFIED' ) ;
#230 = CC_DESIGN_APPROVAL ( #229, ( #231 ) ) ;
#231 = PRODUCT_DEFINITION ( 'UNKNOWN', '', #151, #24 ) ;
#232 = FACE_OUTER_BOUND ( 'NONE', #53, .T. ) ;
#233 = CARTESIAN_POINT ( 'NONE',  ( 3.491481338843133986E-14, 2.249639673992784496E-32, 10.00000000000000178 ) ) ;
#234 = CARTESIAN_POINT ( 'NONE',  ( 1.724791781388508004E-13, -6.049755187787925154E-15, 49.39999999999999858 ) ) ;
#235 = DIRECTION ( 'NONE',  ( 3.491481338843133355E-15, -0.0000000000000000000, 1.000000000000000000 ) ) ;
#236 = DIRECTION ( 'NONE',  ( -4.275831445896958607E-31, -1.000000000000000000, -1.224646799147353207E-16 ) ) ;
#237 = CC_DESIGN_PERSON_AND_ORGANIZATION_ASSIGNMENT ( #223, #242, ( #231 ) ) ;
#238 = CIRCLE ( 'NONE', #20, 2.250000000000000444 ) ;
#239 = FACE_OUTER_BOUND ( 'NONE', #123, .T. ) ;
#240 = APPROVAL_ROLE ( '' ) ;
#241 = CALENDAR_DATE ( 2021, 12, 11 ) ;
#242 = PERSON_AND_ORGANIZATION_ROLE ( 'creator' ) ;
#243 = EDGE_LOOP ( 'NONE', ( #16 ) ) ;
ENDSEC;
END-ISO-10303-21;
