ISO-10303-21;
HEADER;
FILE_DESCRIPTION (( 'STEP AP203' ),
    '1' );
FILE_NAME ('56840.step',
    '2021-11-10T07:14:13',
    ( '' ),
    ( '' ),
    'SwSTEP 2.0',
    'SolidWorks 2019',
    '' );
FILE_SCHEMA (( 'CONFIG_CONTROL_DESIGN' ));
ENDSEC;

DATA;
#1 = EDGE_LOOP ( 'NONE', ( #108 ) ) ;
#2 = AXIS2_PLACEMENT_3D ( 'NONE', #81, #48, #62 ) ;
#3 = ORIENTED_EDGE ( 'NONE', *, *, #73, .T. ) ;
#4 = APPROVAL_PERSON_ORGANIZATION ( #217, #9, #84 ) ;
#5 = FACE_OUTER_BOUND ( 'NONE', #43, .T. ) ;
#6 = FACE_OUTER_BOUND ( 'NONE', #175, .T. ) ;
#7 = APPLICATION_PROTOCOL_DEFINITION ( 'international standard', 'config_control_design', 1994, #199 ) ;
#8 = FACE_OUTER_BOUND ( 'NONE', #195, .T. ) ;
#9 = APPROVAL ( #148, 'UNSPECIFIED' ) ;
#10 = APPLICATION_PROTOCOL_DEFINITION ( 'international standard', 'config_control_design', 1994, #39 ) ;
#11 = DIRECTION ( 'NONE',  ( -4.275831445896958607E-31, -1.000000000000000000, -1.224646799147353207E-16 ) ) ;
#12 = VERTEX_POINT ( 'NONE', #63 ) ;
#13 = VERTEX_POINT ( 'NONE', #187 ) ;
#14 = AXIS2_PLACEMENT_3D ( 'NONE', #93, #66, #23 ) ;
#15 = LOCAL_TIME ( 8, 14, 13.00000000000000000, #154 ) ;
#16 = DATE_AND_TIME ( #53, #125 ) ;
#17 = PRODUCT_DEFINITION_SHAPE ( 'NONE', 'NONE',  #33 ) ;
#18 = CC_DESIGN_APPROVAL ( #211, ( #33 ) ) ;
#19 = PERSON_AND_ORGANIZATION ( #69, #203 ) ;
#20 = CC_DESIGN_DATE_AND_TIME_ASSIGNMENT ( #114, #120, ( #192 ) ) ;
#21 = DIRECTION ( 'NONE',  ( 3.491481338843133355E-15, -0.0000000000000000000, 1.000000000000000000 ) ) ;
#22 = CIRCLE ( 'NONE', #14, 1.199999999999998845 ) ;
#23 = DIRECTION ( 'NONE',  ( 0.0000000000000000000, 1.000000000000000000, 0.0000000000000000000 ) ) ;
#24 = DIRECTION ( 'NONE',  ( -3.491481338843133355E-15, 0.0000000000000000000, -1.000000000000000000 ) ) ;
#25 = PRODUCT_RELATED_PRODUCT_CATEGORY ( 'detail', '', ( #191 ) ) ;
#26 = CYLINDRICAL_SURFACE ( 'NONE', #70, 1.499999999999996447 ) ;
#27 = CALENDAR_DATE ( 2021, 10, 11 ) ;
#28 = CLOSED_SHELL ( 'NONE', ( #142, #107, #85, #112, #208 ) ) ;
#29 = CIRCLE ( 'NONE', #92, 0.7500000000000000000 ) ;
#30 = DIRECTION ( 'NONE',  ( 1.000000000000000000, 0.0000000000000000000, -3.491481338843133355E-15 ) ) ;
#31 = PERSON_AND_ORGANIZATION ( #69, #203 ) ;
#32 = VERTEX_POINT ( 'NONE', #86 ) ;
#33 = PRODUCT_DEFINITION ( 'UNKNOWN', '', #174, #36 ) ;
#34 = AXIS2_PLACEMENT_3D ( 'NONE', #97, #83, #78 ) ;
#35 = CC_DESIGN_PERSON_AND_ORGANIZATION_ASSIGNMENT ( #31, #204, ( #192 ) ) ;
#36 = DESIGN_CONTEXT ( 'detailed design', #199, 'design' ) ;
#37 = LOCAL_TIME ( 8, 14, 13.00000000000000000, #156 ) ;
#38 = EDGE_LOOP ( 'NONE', ( #155 ) ) ;
#39 = APPLICATION_CONTEXT ( 'configuration controlled 3d designs of mechanical parts and assemblies' ) ;
#40 = CC_DESIGN_SECURITY_CLASSIFICATION ( #192, ( #174 ) ) ;
#41 = DIRECTION ( 'NONE',  ( -1.000000000000000000, 0.0000000000000000000, 3.469446951953622472E-15 ) ) ;
#42 = COORDINATED_UNIVERSAL_TIME_OFFSET ( 1, 0, .AHEAD. ) ;
#43 = EDGE_LOOP ( 'NONE', ( #58 ) ) ;
#44 = MECHANICAL_CONTEXT ( 'NONE', #39, 'mechanical' ) ;
#45 = DIRECTION ( 'NONE',  ( 3.491481338843133355E-15, -1.224646799147353207E-16, 1.000000000000000000 ) ) ;
#46 = PERSON_AND_ORGANIZATION_ROLE ( 'creator' ) ;
#47 = CIRCLE ( 'NONE', #189, 0.7500000000000006661 ) ;
#48 = DIRECTION ( 'NONE',  ( 3.491481338843133355E-15, -1.224646799147353207E-16, 1.000000000000000000 ) ) ;
#49 = CALENDAR_DATE ( 2021, 10, 11 ) ;
#50 = CC_DESIGN_PERSON_AND_ORGANIZATION_ASSIGNMENT ( #222, #61, ( #191 ) ) ;
#51 = DATE_AND_TIME ( #68, #15 ) ;
#52 = CC_DESIGN_DATE_AND_TIME_ASSIGNMENT ( #51, #96, ( #33 ) ) ;
#53 = CALENDAR_DATE ( 2021, 10, 11 ) ;
#54 = CONICAL_SURFACE ( 'NONE', #150, 1.199999999999998845, 0.7853981633974450594 ) ;
#55 = EDGE_LOOP ( 'NONE', ( #212 ) ) ;
#56 = EDGE_LOOP ( 'NONE', ( #144 ) ) ;
#57 = MANIFOLD_SOLID_BREP ( 'Corps-Déplacer/Copier1[1]', #28 ) ;
#58 = ORIENTED_EDGE ( 'NONE', *, *, #167, .F. ) ;
#59 = DIRECTION ( 'NONE',  ( 0.0000000000000000000, 1.000000000000000000, 0.0000000000000000000 ) ) ;
#60 = DIRECTION ( 'NONE',  ( 1.000000000000000000, 0.0000000000000000000, -3.491481338843133355E-15 ) ) ;
#61 = PERSON_AND_ORGANIZATION_ROLE ( 'design_owner' ) ;
#62 = DIRECTION ( 'NONE',  ( -4.275831445896958607E-31, -1.000000000000000000, -1.224646799147353207E-16 ) ) ;
#63 = CARTESIAN_POINT ( 'NONE',  ( 0.7500000000000058842, 0.0000000000000000000, 1.499999999999996003 ) ) ;
#64 = FACE_OUTER_BOUND ( 'NONE', #161, .T. ) ;
#65 = APPROVAL_ROLE ( '' ) ;
#66 = DIRECTION ( 'NONE',  ( -3.491481338843133355E-15, 1.224646799147353207E-16, -1.000000000000000000 ) ) ;
#67 = ADVANCED_BREP_SHAPE_REPRESENTATION ( '56840', ( #57, #129, #207 ), #177 ) ;
#68 = CALENDAR_DATE ( 2021, 10, 11 ) ;
#69 = PERSON ( 'UNSPECIFIED', 'UNSPECIFIED', 'UNSPECIFIED', ('UNSPECIFIED'), ('UNSPECIFIED'), ('UNSPECIFIED') ) ;
#70 = AXIS2_PLACEMENT_3D ( 'NONE', #130, #220, #170 ) ;
#71 = CC_DESIGN_PERSON_AND_ORGANIZATION_ASSIGNMENT ( #215, #118, ( #174 ) ) ;
#72 = CC_DESIGN_PERSON_AND_ORGANIZATION_ASSIGNMENT ( #138, #82, ( #33 ) ) ;
#73 = EDGE_CURVE ( 'NONE', #103, #103, #22, .T. ) ;
#74 = AXIS2_PLACEMENT_3D ( 'NONE', #113, #180, #153 ) ;
#75 = CARTESIAN_POINT ( 'NONE',  ( -6.413803915257457113E-31, 2.249659577954772199E-32, -1.836986451539393076E-16 ) ) ;
#76 = FACE_BOUND ( 'NONE', #126, .T. ) ;
#77 = APPROVAL_DATE_TIME ( #179, #211 ) ;
#78 = DIRECTION ( 'NONE',  ( 1.000000000000000000, 0.0000000000000000000, -3.469446951953611033E-15 ) ) ;
#79 = DIRECTION ( 'NONE',  ( 0.0000000000000000000, 0.0000000000000000000, 1.000000000000000000 ) ) ;
#80 = AXIS2_PLACEMENT_3D ( 'NONE', #146, #21, #60 ) ;
#81 = CARTESIAN_POINT ( 'NONE',  ( 5.237222008264700033E-15, -2.168404344971014538E-16, 1.500000000000000000 ) ) ;
#82 = PERSON_AND_ORGANIZATION_ROLE ( 'creator' ) ;
#83 = DIRECTION ( 'NONE',  ( 3.491481338843133355E-15, -0.0000000000000000000, 1.000000000000000000 ) ) ;
#84 = APPROVAL_ROLE ( '' ) ;
#85 = ADVANCED_FACE ( 'NONE', ( #213 ), #111, .F. ) ;
#86 = CARTESIAN_POINT ( 'NONE',  ( 1.316288464743861212E-13, 1.499999999999994005, 37.69999999999999574 ) ) ;
#87 = ADVANCED_FACE ( 'NONE', ( #98, #5 ), #178, .T. ) ;
#88 = AXIS2_PLACEMENT_3D ( 'NONE', #115, #95, #30 ) ;
#89 = CIRCLE ( 'NONE', #34, 0.7500000000000006661 ) ;
#90 = APPROVAL_STATUS ( 'not_yet_approved' ) ;
#91 = ORIENTED_EDGE ( 'NONE', *, *, #158, .F. ) ;
#92 = AXIS2_PLACEMENT_3D ( 'NONE', #171, #133, #218 ) ;
#93 = CARTESIAN_POINT ( 'NONE',  ( 1.326762908760390423E-13, -4.653657836759941941E-15, 38.00000000000000000 ) ) ;
#94 = APPROVAL_PERSON_ORGANIZATION ( #19, #121, #160 ) ;
#95 = DIRECTION ( 'NONE',  ( 3.491481338843133355E-15, -0.0000000000000000000, 1.000000000000000000 ) ) ;
#96 = DATE_TIME_ROLE ( 'creation_date' ) ;
#97 = CARTESIAN_POINT ( 'NONE',  ( 5.237222008264694511E-15, 0.0000000000000000000, 1.499999999999998446 ) ) ;
#98 = FACE_OUTER_BOUND ( 'NONE', #127, .T. ) ;
#99 = PERSON_AND_ORGANIZATION ( #69, #203 ) ;
#100 = DIRECTION ( 'NONE',  ( -3.491481338843133355E-15, 1.224646799147353207E-16, -1.000000000000000000 ) ) ;
#101 = ADVANCED_FACE ( 'NONE', ( #116 ), #165, .F. ) ;
#102 =( NAMED_UNIT ( * ) PLANE_ANGLE_UNIT ( ) SI_UNIT ( $, .RADIAN. ) );
#103 = VERTEX_POINT ( 'NONE', #172 ) ;
#104 = CLOSED_SHELL ( 'NONE', ( #190, #87, #101 ) ) ;
#105 = APPROVAL_DATE_TIME ( #16, #121 ) ;
#106 = AXIS2_PLACEMENT_3D ( 'NONE', #131, #24, #41 ) ;
#107 = ADVANCED_FACE ( 'NONE', ( #6, #76 ), #54, .T. ) ;
#108 = ORIENTED_EDGE ( 'NONE', *, *, #167, .T. ) ;
#109 = APPROVAL_PERSON_ORGANIZATION ( #99, #211, #65 ) ;
#110 = ORIENTED_EDGE ( 'NONE', *, *, #151, .T. ) ;
#111 = PLANE ( 'NONE',  #145 ) ;
#112 = ADVANCED_FACE ( 'NONE', ( #214, #168 ), #206, .F. ) ;
#113 = CARTESIAN_POINT ( 'NONE',  ( 1.316288464743861212E-13, -4.616918432785521081E-15, 37.69999999999999574 ) ) ;
#114 = DATE_AND_TIME ( #49, #209 ) ;
#115 = CARTESIAN_POINT ( 'NONE',  ( 0.0000000000000000000, 0.0000000000000000000, 0.0000000000000000000 ) ) ;
#116 = FACE_OUTER_BOUND ( 'NONE', #143, .T. ) ;
#117 = LOCAL_TIME ( 8, 14, 13.00000000000000000, #205 ) ;
#118 = PERSON_AND_ORGANIZATION_ROLE ( 'design_supplier' ) ;
#119 = DIRECTION ( 'NONE',  ( 1.000000000000000000, 0.0000000000000000000, -3.469446951953611033E-15 ) ) ;
#120 = DATE_TIME_ROLE ( 'classification_date' ) ;
#121 = APPROVAL ( #90, 'UNSPECIFIED' ) ;
#122 = SHAPE_DEFINITION_REPRESENTATION ( #17, #67 ) ;
#123 = COORDINATED_UNIVERSAL_TIME_OFFSET ( 1, 0, .AHEAD. ) ;
#124 = UNCERTAINTY_MEASURE_WITH_UNIT (LENGTH_MEASURE( 1.000000000000000082E-05 ), #221, 'distance_accuracy_value', 'NONE');
#125 = LOCAL_TIME ( 8, 14, 13.00000000000000000, #123 ) ;
#126 = EDGE_LOOP ( 'NONE', ( #3 ) ) ;
#127 = EDGE_LOOP ( 'NONE', ( #162 ) ) ;
#128 = CIRCLE ( 'NONE', #106, 1.499999999999996447 ) ;
#129 = MANIFOLD_SOLID_BREP ( 'Corps-Déplacer/Copier1[2]', #104 ) ;
#130 = CARTESIAN_POINT ( 'NONE',  ( 0.0000000000000000000, 0.0000000000000000000, 0.0000000000000000000 ) ) ;
#131 = CARTESIAN_POINT ( 'NONE',  ( 1.704519303138777341E-14, 0.0000000000000000000, 4.881937314617159629 ) ) ;
#132 = SECURITY_CLASSIFICATION_LEVEL ( 'unclassified' ) ;
#133 = DIRECTION ( 'NONE',  ( 3.491481338843133355E-15, -0.0000000000000000000, 1.000000000000000000 ) ) ;
#134 = FACE_OUTER_BOUND ( 'NONE', #56, .T. ) ;
#135 = CALENDAR_DATE ( 2021, 10, 11 ) ;
#136 = CARTESIAN_POINT ( 'NONE',  ( 5.237222008264694511E-15, 0.0000000000000000000, 1.499999999999998446 ) ) ;
#137 = PERSON_AND_ORGANIZATION ( #69, #203 ) ;
#138 = PERSON_AND_ORGANIZATION ( #69, #203 ) ;
#139 = AXIS2_PLACEMENT_3D ( 'NONE', #185, #45, #11 ) ;
#140 = CC_DESIGN_APPROVAL ( #121, ( #192 ) ) ;
#141 = ORIENTED_EDGE ( 'NONE', *, *, #158, .T. ) ;
#142 = ADVANCED_FACE ( 'NONE', ( #64, #8 ), #26, .T. ) ;
#143 = EDGE_LOOP ( 'NONE', ( #176 ) ) ;
#144 = ORIENTED_EDGE ( 'NONE', *, *, #223, .F. ) ;
#145 = AXIS2_PLACEMENT_3D ( 'NONE', #196, #164, #198 ) ;
#146 = CARTESIAN_POINT ( 'NONE',  ( 5.237222008264698455E-15, 0.0000000000000000000, 1.499999999999999556 ) ) ;
#147 = CARTESIAN_POINT ( 'NONE',  ( 1.326762908760390423E-13, -4.653657836759941941E-15, 38.00000000000000000 ) ) ;
#148 = APPROVAL_STATUS ( 'not_yet_approved' ) ;
#149 = FACE_OUTER_BOUND ( 'NONE', #1, .T. ) ;
#150 = AXIS2_PLACEMENT_3D ( 'NONE', #147, #100, #59 ) ;
#151 = EDGE_CURVE ( 'NONE', #13, #13, #128, .T. ) ;
#152 = DIRECTION ( 'NONE',  ( 1.000000000000000000, 0.0000000000000000000, 0.0000000000000000000 ) ) ;
#153 = DIRECTION ( 'NONE',  ( 0.0000000000000000000, 1.000000000000000000, 0.0000000000000000000 ) ) ;
#154 = COORDINATED_UNIVERSAL_TIME_OFFSET ( 1, 0, .AHEAD. ) ;
#155 = ORIENTED_EDGE ( 'NONE', *, *, #73, .F. ) ;
#156 = COORDINATED_UNIVERSAL_TIME_OFFSET ( 1, 0, .AHEAD. ) ;
#157 = CIRCLE ( 'NONE', #74, 1.499999999999998446 ) ;
#158 = EDGE_CURVE ( 'NONE', #32, #32, #157, .T. ) ;
#159 = CC_DESIGN_PERSON_AND_ORGANIZATION_ASSIGNMENT ( #137, #46, ( #174 ) ) ;
#160 = APPROVAL_ROLE ( '' ) ;
#161 = EDGE_LOOP ( 'NONE', ( #141 ) ) ;
#162 = ORIENTED_EDGE ( 'NONE', *, *, #194, .T. ) ;
#163 = CC_DESIGN_APPROVAL ( #9, ( #174 ) ) ;
#164 = DIRECTION ( 'NONE',  ( -3.491481338843133355E-15, 1.224646799147353207E-16, -1.000000000000000000 ) ) ;
#165 = PLANE ( 'NONE',  #184 ) ;
#166 = APPROVAL_DATE_TIME ( #201, #9 ) ;
#167 = EDGE_CURVE ( 'NONE', #188, #188, #89, .T. ) ;
#168 = FACE_OUTER_BOUND ( 'NONE', #193, .T. ) ;
#169 = CARTESIAN_POINT ( 'NONE',  ( 0.0000000000000000000, 0.0000000000000000000, 0.0000000000000000000 ) ) ;
#170 = DIRECTION ( 'NONE',  ( 4.275831445896958607E-31, 1.000000000000000000, 1.224646799147352961E-16 ) ) ;
#171 = CARTESIAN_POINT ( 'NONE',  ( 0.0000000000000000000, 0.0000000000000000000, 0.0000000000000000000 ) ) ;
#172 = CARTESIAN_POINT ( 'NONE',  ( 1.326762908760390423E-13, 1.199999999999994182, 38.00000000000000000 ) ) ;
#173 = VERTEX_POINT ( 'NONE', #181 ) ;
#174 = PRODUCT_DEFINITION_FORMATION_WITH_SPECIFIED_SOURCE ( 'ANY', '', #191, .NOT_KNOWN. ) ;
#175 = EDGE_LOOP ( 'NONE', ( #91 ) ) ;
#176 = ORIENTED_EDGE ( 'NONE', *, *, #194, .F. ) ;
#177 =( GEOMETRIC_REPRESENTATION_CONTEXT ( 3 ) GLOBAL_UNCERTAINTY_ASSIGNED_CONTEXT ( ( #124 ) ) GLOBAL_UNIT_ASSIGNED_CONTEXT ( ( #221, #102, #219 ) ) REPRESENTATION_CONTEXT ( 'NONE', 'WORKASPACE' ) );
#178 = CYLINDRICAL_SURFACE ( 'NONE', #88, 0.7500000000000003331 ) ;
#179 = DATE_AND_TIME ( #27, #117 ) ;
#180 = DIRECTION ( 'NONE',  ( -3.491481338843133355E-15, 1.224646799147353207E-16, -1.000000000000000000 ) ) ;
#181 = CARTESIAN_POINT ( 'NONE',  ( 0.7500000000000000000, 0.0000000000000000000, -2.618611004132350016E-15 ) ) ;
#182 = DIRECTION ( 'NONE',  ( 3.491481338843133355E-15, -1.224646799147353207E-16, 1.000000000000000000 ) ) ;
#183 = APPROVAL_STATUS ( 'not_yet_approved' ) ;
#184 = AXIS2_PLACEMENT_3D ( 'NONE', #75, #182, #197 ) ;
#185 = CARTESIAN_POINT ( 'NONE',  ( 5.237222008264700033E-15, -2.168404344971014538E-16, 1.500000000000000000 ) ) ;
#186 = CARTESIAN_POINT ( 'NONE',  ( 0.7500000000000058842, 0.0000000000000000000, 1.499999999999996003 ) ) ;
#187 = CARTESIAN_POINT ( 'NONE',  ( -1.499999999999979128, 0.0000000000000000000, 4.881937314617164958 ) ) ;
#188 = VERTEX_POINT ( 'NONE', #186 ) ;
#189 = AXIS2_PLACEMENT_3D ( 'NONE', #136, #202, #119 ) ;
#190 = ADVANCED_FACE ( 'NONE', ( #149 ), #216, .T. ) ;
#191 = PRODUCT ( '56840', '56840', '', ( #44 ) ) ;
#192 = SECURITY_CLASSIFICATION ( '', '', #132 ) ;
#193 = EDGE_LOOP ( 'NONE', ( #110 ) ) ;
#194 = EDGE_CURVE ( 'NONE', #173, #173, #29, .T. ) ;
#195 = EDGE_LOOP ( 'NONE', ( #210 ) ) ;
#196 = CARTESIAN_POINT ( 'NONE',  ( 1.326762908760390423E-13, 8.998558695971069014E-33, 38.00000000000000000 ) ) ;
#197 = DIRECTION ( 'NONE',  ( -4.275831445896958607E-31, -1.000000000000000000, -1.224646799147353207E-16 ) ) ;
#198 = DIRECTION ( 'NONE',  ( 4.275831445896958607E-31, 1.000000000000000000, 1.224646799147353207E-16 ) ) ;
#199 = APPLICATION_CONTEXT ( 'configuration controlled 3d designs of mechanical parts and assemblies' ) ;
#200 = PLANE ( 'NONE',  #139 ) ;
#201 = DATE_AND_TIME ( #135, #37 ) ;
#202 = DIRECTION ( 'NONE',  ( 3.491481338843133355E-15, -0.0000000000000000000, 1.000000000000000000 ) ) ;
#203 = ORGANIZATION ( 'UNSPECIFIED', 'UNSPECIFIED', '' ) ;
#204 = PERSON_AND_ORGANIZATION_ROLE ( 'classification_officer' ) ;
#205 = COORDINATED_UNIVERSAL_TIME_OFFSET ( 1, 0, .AHEAD. ) ;
#206 = TOROIDAL_SURFACE ( 'NONE', #80, 8.750000000000000000, 8.000000000000000000 ) ;
#207 = AXIS2_PLACEMENT_3D ( 'NONE', #169, #79, #152 ) ;
#208 = ADVANCED_FACE ( 'NONE', ( #134 ), #200, .F. ) ;
#209 = LOCAL_TIME ( 8, 14, 13.00000000000000000, #42 ) ;
#210 = ORIENTED_EDGE ( 'NONE', *, *, #151, .F. ) ;
#211 = APPROVAL ( #183, 'UNSPECIFIED' ) ;
#212 = ORIENTED_EDGE ( 'NONE', *, *, #223, .T. ) ;
#213 = FACE_OUTER_BOUND ( 'NONE', #38, .T. ) ;
#214 = FACE_OUTER_BOUND ( 'NONE', #55, .T. ) ;
#215 = PERSON_AND_ORGANIZATION ( #69, #203 ) ;
#216 = PLANE ( 'NONE',  #2 ) ;
#217 = PERSON_AND_ORGANIZATION ( #69, #203 ) ;
#218 = DIRECTION ( 'NONE',  ( 1.000000000000000000, 0.0000000000000000000, -3.491481338843133355E-15 ) ) ;
#219 =( NAMED_UNIT ( * ) SI_UNIT ( $, .STERADIAN. ) SOLID_ANGLE_UNIT ( ) );
#220 = DIRECTION ( 'NONE',  ( -3.491481338843133355E-15, 1.224646799147353207E-16, -1.000000000000000000 ) ) ;
#221 =( LENGTH_UNIT ( ) NAMED_UNIT ( * ) SI_UNIT ( .MILLI., .METRE. ) );
#222 = PERSON_AND_ORGANIZATION ( #69, #203 ) ;
#223 = EDGE_CURVE ( 'NONE', #12, #12, #47, .T. ) ;
ENDSEC;
END-ISO-10303-21;
