ISO-10303-21;
HEADER;
FILE_DESCRIPTION (( 'STEP AP203' ),
    '1' );
FILE_NAME ('56828.step',
    '2021-10-13T11:36:28',
    ( '' ),
    ( '' ),
    'SwSTEP 2.0',
    'SolidWorks 2019',
    '' );
FILE_SCHEMA (( 'CONFIG_CONTROL_DESIGN' ));
ENDSEC;

DATA;
#1 =( NAMED_UNIT ( * ) SI_UNIT ( $, .STERADIAN. ) SOLID_ANGLE_UNIT ( ) );
#2 = PERSON_AND_ORGANIZATION ( #252, #141 ) ;
#3 = CC_DESIGN_DATE_AND_TIME_ASSIGNMENT ( #176, #82, ( #78 ) ) ;
#4 = CIRCLE ( 'NONE', #126, 4.400000000000007461 ) ;
#5 = ADVANCED_FACE ( 'NONE', ( #205, #48 ), #136, .T. ) ;
#6 = FACE_OUTER_BOUND ( 'NONE', #108, .T. ) ;
#7 = APPROVAL ( #195, 'UNSPECIFIED' ) ;
#8 = FACE_OUTER_BOUND ( 'NONE', #26, .T. ) ;
#9 = PLANE ( 'NONE',  #213 ) ;
#10 = DIRECTION ( 'NONE',  ( -4.275831445896958607E-31, -1.000000000000000000, -1.224646799147353207E-16 ) ) ;
#11 = AXIS2_PLACEMENT_3D ( 'NONE', #75, #154, #180 ) ;
#12 = FACE_OUTER_BOUND ( 'NONE', #31, .T. ) ;
#13 = EDGE_CURVE ( 'NONE', #95, #95, #248, .T. ) ;
#14 = VERTEX_POINT ( 'NONE', #178 ) ;
#15 = COORDINATED_UNIVERSAL_TIME_OFFSET ( 1, 0, .AHEAD. ) ;
#16 = AXIS2_PLACEMENT_3D ( 'NONE', #216, #197, #39 ) ;
#17 = DIRECTION ( 'NONE',  ( -3.491481338843133355E-15, 1.224646799147353207E-16, -1.000000000000000000 ) ) ;
#18 = PERSON_AND_ORGANIZATION ( #252, #141 ) ;
#19 = FACE_OUTER_BOUND ( 'NONE', #165, .T. ) ;
#20 = CALENDAR_DATE ( 2021, 13, 10 ) ;
#21 = CARTESIAN_POINT ( 'NONE',  ( 3.107418391570388560E-13, -1.089935651241144239E-14, 89.00000000000000000 ) ) ;
#22 = APPROVAL_DATE_TIME ( #183, #244 ) ;
#23 = CALENDAR_DATE ( 2021, 13, 10 ) ;
#24 = EDGE_CURVE ( 'NONE', #114, #114, #89, .T. ) ;
#25 = AXIS2_PLACEMENT_3D ( 'NONE', #209, #263, #152 ) ;
#26 = EDGE_LOOP ( 'NONE', ( #53 ) ) ;
#27 = ADVANCED_FACE ( 'NONE', ( #67 ), #9, .F. ) ;
#28 = DIRECTION ( 'NONE',  ( -3.491481338843133355E-15, 1.224646799147353207E-16, -1.000000000000000000 ) ) ;
#29 = ORIENTED_EDGE ( 'NONE', *, *, #32, .T. ) ;
#30 = CC_DESIGN_APPROVAL ( #7, ( #78 ) ) ;
#31 = EDGE_LOOP ( 'NONE', ( #107 ) ) ;
#32 = EDGE_CURVE ( 'NONE', #14, #14, #79, .T. ) ;
#33 = CARTESIAN_POINT ( 'NONE',  ( 1.222018468595096801E-13, -4.400000000000021672, 35.00000000000000000 ) ) ;
#34 = PERSON_AND_ORGANIZATION ( #252, #141 ) ;
#35 = CARTESIAN_POINT ( 'NONE',  ( 6.353976404174117669E-15, -2.228674911895110517E-16, 1.819851171331032358 ) ) ;
#36 = CALENDAR_DATE ( 2021, 13, 10 ) ;
#37 = LOCAL_TIME ( 13, 36, 28.00000000000000000, #193 ) ;
#38 = AXIS2_PLACEMENT_3D ( 'NONE', #69, #229, #60 ) ;
#39 = DIRECTION ( 'NONE',  ( 1.510825004591027679E-30, 1.000000000000000000, 4.327174794786742389E-16 ) ) ;
#40 = APPLICATION_PROTOCOL_DEFINITION ( 'international standard', 'config_control_design', 1994, #200 ) ;
#41 = DIRECTION ( 'NONE',  ( 0.0000000000000000000, 1.000000000000000000, 0.0000000000000000000 ) ) ;
#42 = APPROVAL_DATE_TIME ( #119, #68 ) ;
#43 = APPROVAL_STATUS ( 'not_yet_approved' ) ;
#44 = CIRCLE ( 'NONE', #218, 4.400000000000007461 ) ;
#45 = CC_DESIGN_DATE_AND_TIME_ASSIGNMENT ( #61, #56, ( #172 ) ) ;
#46 = LOCAL_TIME ( 13, 36, 28.00000000000000000, #134 ) ;
#47 = ORIENTED_EDGE ( 'NONE', *, *, #24, .T. ) ;
#48 = FACE_BOUND ( 'NONE', #223, .T. ) ;
#49 = CC_DESIGN_PERSON_AND_ORGANIZATION_ASSIGNMENT ( #217, #102, ( #192 ) ) ;
#50 = CIRCLE ( 'NONE', #249, 4.000000000000001776 ) ;
#51 = ORIENTED_EDGE ( 'NONE', *, *, #179, .T. ) ;
#52 = DIRECTION ( 'NONE',  ( 0.0000000000000000000, -1.000000000000000000, 0.0000000000000000000 ) ) ;
#53 = ORIENTED_EDGE ( 'NONE', *, *, #202, .F. ) ;
#54 = CYLINDRICAL_SURFACE ( 'NONE', #16, 4.400000000000007461 ) ;
#55 = CYLINDRICAL_SURFACE ( 'NONE', #201, 4.999999999999997335 ) ;
#56 = DATE_TIME_ROLE ( 'creation_date' ) ;
#57 = VERTEX_POINT ( 'NONE', #232 ) ;
#58 = DIRECTION ( 'NONE',  ( 0.0000000000000000000, 0.0000000000000000000, 1.000000000000000000 ) ) ;
#59 = CONICAL_SURFACE ( 'NONE', #11, 5.500000000000017764, 0.5235987755983027014 ) ;
#60 = DIRECTION ( 'NONE',  ( 4.275831445896958607E-31, 1.000000000000000000, 1.224646799147353207E-16 ) ) ;
#61 = DATE_AND_TIME ( #23, #37 ) ;
#62 = DIRECTION ( 'NONE',  ( 4.275831445896959482E-31, 1.000000000000000000, 1.224646799147353207E-16 ) ) ;
#63 = DIRECTION ( 'NONE',  ( 1.000000000000000000, 0.0000000000000000000, 0.0000000000000000000 ) ) ;
#64 = COORDINATED_UNIVERSAL_TIME_OFFSET ( 1, 0, .AHEAD. ) ;
#65 = LOCAL_TIME ( 13, 36, 28.00000000000000000, #115 ) ;
#66 = ADVANCED_FACE ( 'NONE', ( #6, #250 ), #103, .F. ) ;
#67 = FACE_OUTER_BOUND ( 'NONE', #149, .T. ) ;
#68 = APPROVAL ( #156, 'UNSPECIFIED' ) ;
#69 = CARTESIAN_POINT ( 'NONE',  ( 3.107418391570388560E-13, 2.999519565323699889E-32, 89.00000000000000000 ) ) ;
#70 = EDGE_LOOP ( 'NONE', ( #29 ) ) ;
#71 = APPROVAL_PERSON_ORGANIZATION ( #34, #244, #233 ) ;
#72 = DIRECTION ( 'NONE',  ( 3.491481338843133355E-15, -1.224646799147353207E-16, 1.000000000000000000 ) ) ;
#73 = EDGE_LOOP ( 'NONE', ( #51 ) ) ;
#74 = DIRECTION ( 'NONE',  ( -4.275831445896958607E-31, -1.000000000000000000, -1.224646799147353207E-16 ) ) ;
#75 = CARTESIAN_POINT ( 'NONE',  ( 1.716873279105689974E-13, -2.127810536043305525E-14, 49.17320508075687968 ) ) ;
#76 = MECHANICAL_CONTEXT ( 'NONE', #162, 'mechanical' ) ;
#77 = DIRECTION ( 'NONE',  ( -3.501690807976786449E-31, -1.000000000000000000, -9.856383386231841571E-17 ) ) ;
#78 = SECURITY_CLASSIFICATION ( '', '', #199 ) ;
#79 = CIRCLE ( 'NONE', #257, 5.000000000000000888 ) ;
#80 = DIRECTION ( 'NONE',  ( 3.491481338843133355E-15, -1.224646799147353207E-16, 1.000000000000000000 ) ) ;
#81 = PERSON_AND_ORGANIZATION_ROLE ( 'creator' ) ;
#82 = DATE_TIME_ROLE ( 'classification_date' ) ;
#83 = CONICAL_SURFACE ( 'NONE', #168, 4.999999999999990230, 1.221730476396026388 ) ;
#84 = CC_DESIGN_APPROVAL ( #68, ( #144 ) ) ;
#85 = PLANE ( 'NONE',  #38 ) ;
#86 = EDGE_LOOP ( 'NONE', ( #148 ) ) ;
#87 = CARTESIAN_POINT ( 'NONE',  ( 3.072503578181957353E-13, -1.077689183249670724E-14, 88.00000000000000000 ) ) ;
#88 =( GEOMETRIC_REPRESENTATION_CONTEXT ( 3 ) GLOBAL_UNCERTAINTY_ASSIGNED_CONTEXT ( ( #164 ) ) GLOBAL_UNIT_ASSIGNED_CONTEXT ( ( #182, #158, #1 ) ) REPRESENTATION_CONTEXT ( 'NONE', 'WORKASPACE' ) );
#89 = CIRCLE ( 'NONE', #112, 4.999999999999997335 ) ;
#90 = CARTESIAN_POINT ( 'NONE',  ( 1.640996229256272803E-13, -1.994931997373328159E-14, 47.00000000000000000 ) ) ;
#91 = DIRECTION ( 'NONE',  ( -3.491481338843133355E-15, 4.327174794786742882E-16, -1.000000000000000000 ) ) ;
#92 = FACE_OUTER_BOUND ( 'NONE', #70, .T. ) ;
#93 = PERSON_AND_ORGANIZATION ( #252, #141 ) ;
#94 = CLOSED_SHELL ( 'NONE', ( #215, #109, #143 ) ) ;
#95 = VERTEX_POINT ( 'NONE', #33 ) ;
#96 = VERTEX_POINT ( 'NONE', #262 ) ;
#97 = APPROVAL_ROLE ( '' ) ;
#98 = DIRECTION ( 'NONE',  ( 3.491481338843133355E-15, -1.224646799147353207E-16, 1.000000000000000000 ) ) ;
#99 = CARTESIAN_POINT ( 'NONE',  ( 0.0000000000000000000, 0.0000000000000000000, 0.0000000000000000000 ) ) ;
#100 = CC_DESIGN_APPROVAL ( #244, ( #172 ) ) ;
#101 = VERTEX_POINT ( 'NONE', #121 ) ;
#102 = PERSON_AND_ORGANIZATION_ROLE ( 'design_owner' ) ;
#103 = TOROIDAL_SURFACE ( 'NONE', #243, 5.400000000000013678, 0.9999999999999991118 ) ;
#104 = ADVANCED_FACE ( 'NONE', ( #8 ), #85, .F. ) ;
#105 = AXIS2_PLACEMENT_3D ( 'NONE', #254, #91, #258 ) ;
#106 = CC_DESIGN_PERSON_AND_ORGANIZATION_ASSIGNMENT ( #242, #81, ( #144 ) ) ;
#107 = ORIENTED_EDGE ( 'NONE', *, *, #189, .T. ) ;
#108 = EDGE_LOOP ( 'NONE', ( #130 ) ) ;
#109 = ADVANCED_FACE ( 'NONE', ( #12, #190 ), #118, .T. ) ;
#110 = ORIENTED_EDGE ( 'NONE', *, *, #13, .T. ) ;
#111 = APPROVAL_PERSON_ORGANIZATION ( #18, #68, #97 ) ;
#112 = AXIS2_PLACEMENT_3D ( 'NONE', #147, #187, #129 ) ;
#113 = CARTESIAN_POINT ( 'NONE',  ( 1.222018468595096801E-13, -1.514511178175360324E-14, 35.00000000000000000 ) ) ;
#114 = VERTEX_POINT ( 'NONE', #191 ) ;
#115 = COORDINATED_UNIVERSAL_TIME_OFFSET ( 1, 0, .AHEAD. ) ;
#116 = DIRECTION ( 'NONE',  ( -4.622231866529374805E-31, -1.000000000000000000, -1.301042606982607786E-16 ) ) ;
#117 = APPROVAL_DATE_TIME ( #211, #7 ) ;
#118 = CYLINDRICAL_SURFACE ( 'NONE', #105, 4.400000000000007461 ) ;
#119 = DATE_AND_TIME ( #138, #185 ) ;
#120 = CARTESIAN_POINT ( 'NONE',  ( 1.222018468595096801E-13, 3.749399456654634167E-32, 35.00000000000000000 ) ) ;
#121 = CARTESIAN_POINT ( 'NONE',  ( 1.658453635950488407E-13, 4.533974596215555763, 47.50000000000000000 ) ) ;
#122 = PERSON_AND_ORGANIZATION_ROLE ( 'creator' ) ;
#123 = AXIS2_PLACEMENT_3D ( 'NONE', #245, #28, #52 ) ;
#124 = SHAPE_DEFINITION_REPRESENTATION ( #238, #240 ) ;
#125 = AXIS2_PLACEMENT_3D ( 'NONE', #99, #58, #63 ) ;
#126 = AXIS2_PLACEMENT_3D ( 'NONE', #113, #157, #173 ) ;
#127 = DIRECTION ( 'NONE',  ( 1.510825004591027855E-30, 1.000000000000000000, 4.327174794786743375E-16 ) ) ;
#128 = ORIENTED_EDGE ( 'NONE', *, *, #226, .F. ) ;
#129 = DIRECTION ( 'NONE',  ( 0.0000000000000000000, -1.000000000000000000, 0.0000000000000000000 ) ) ;
#130 = ORIENTED_EDGE ( 'NONE', *, *, #179, .F. ) ;
#131 = FACE_OUTER_BOUND ( 'NONE', #166, .T. ) ;
#132 = ADVANCED_FACE ( 'NONE', ( #139, #212 ), #54, .T. ) ;
#133 = CARTESIAN_POINT ( 'NONE',  ( 5.591499235673241882E-15, -4.400000000000007461, 1.601469030771313751 ) ) ;
#134 = COORDINATED_UNIVERSAL_TIME_OFFSET ( 1, 0, .AHEAD. ) ;
#135 = PLANE ( 'NONE',  #235 ) ;
#136 = CONICAL_SURFACE ( 'NONE', #208, 4.000000000000001776, 0.7853981633974473908 ) ;
#137 = DIRECTION ( 'NONE',  ( -3.491481338843133355E-15, 4.327174794786742882E-16, -1.000000000000000000 ) ) ;
#138 = CALENDAR_DATE ( 2021, 13, 10 ) ;
#139 = FACE_OUTER_BOUND ( 'NONE', #73, .T. ) ;
#140 = PERSON_AND_ORGANIZATION ( #252, #141 ) ;
#141 = ORGANIZATION ( 'UNSPECIFIED', 'UNSPECIFIED', '' ) ;
#142 = CLOSED_SHELL ( 'NONE', ( #237, #5, #104, #132, #219, #66, #27 ) ) ;
#143 = ADVANCED_FACE ( 'NONE', ( #131 ), #135, .T. ) ;
#144 = PRODUCT_DEFINITION_FORMATION_WITH_SPECIFIED_SOURCE ( 'ANY', '', #192, .NOT_KNOWN. ) ;
#145 = EDGE_CURVE ( 'NONE', #174, #174, #44, .T. ) ;
#146 = PRODUCT_RELATED_PRODUCT_CATEGORY ( 'detail', '', ( #192 ) ) ;
#147 = CARTESIAN_POINT ( 'NONE',  ( 1.686636163742914426E-13, -2.090336103054293858E-14, 48.30717967697241733 ) ) ;
#148 = ORIENTED_EDGE ( 'NONE', *, *, #145, .F. ) ;
#149 = EDGE_LOOP ( 'NONE', ( #110 ) ) ;
#150 = ORIENTED_EDGE ( 'NONE', *, *, #202, .T. ) ;
#151 = ORIENTED_EDGE ( 'NONE', *, *, #189, .F. ) ;
#152 = DIRECTION ( 'NONE',  ( 0.0000000000000000000, 1.000000000000000000, 0.0000000000000000000 ) ) ;
#153 = CIRCLE ( 'NONE', #161, 4.400000000000014566 ) ;
#154 = DIRECTION ( 'NONE',  ( 3.491481338843133355E-15, -4.327174794786742882E-16, 1.000000000000000000 ) ) ;
#155 = CARTESIAN_POINT ( 'NONE',  ( 1.640996229256272803E-13, 4.399999999999994138, 47.00000000000000000 ) ) ;
#156 = APPROVAL_STATUS ( 'not_yet_approved' ) ;
#157 = DIRECTION ( 'NONE',  ( -3.491481338843133355E-15, 1.224646799147353207E-16, -1.000000000000000000 ) ) ;
#158 =( NAMED_UNIT ( * ) PLANE_ANGLE_UNIT ( ) SI_UNIT ( $, .RADIAN. ) );
#159 = CIRCLE ( 'NONE', #25, 4.533974596215576192 ) ;
#160 = CARTESIAN_POINT ( 'NONE',  ( 1.640996229256272803E-13, -2.033772153549769155E-14, 47.00000000000000000 ) ) ;
#161 = AXIS2_PLACEMENT_3D ( 'NONE', #160, #137, #41 ) ;
#162 = APPLICATION_CONTEXT ( 'configuration controlled 3d designs of mechanical parts and assemblies' ) ;
#163 = EDGE_LOOP ( 'NONE', ( #171 ) ) ;
#164 = UNCERTAINTY_MEASURE_WITH_UNIT (LENGTH_MEASURE( 1.000000000000000082E-05 ), #182, 'distance_accuracy_value', 'NONE');
#165 = EDGE_LOOP ( 'NONE', ( #47 ) ) ;
#166 = EDGE_LOOP ( 'NONE', ( #151 ) ) ;
#167 = DIRECTION ( 'NONE',  ( 0.0000000000000000000, 1.000000000000000000, 0.0000000000000000000 ) ) ;
#168 = AXIS2_PLACEMENT_3D ( 'NONE', #35, #98, #116 ) ;
#169 = MANIFOLD_SOLID_BREP ( 'Corps-Déplacer/Copier1[1]', #142 ) ;
#170 = DIRECTION ( 'NONE',  ( -3.491481338843133355E-15, 1.224646799147353207E-16, -1.000000000000000000 ) ) ;
#171 = ORIENTED_EDGE ( 'NONE', *, *, #13, .F. ) ;
#172 = PRODUCT_DEFINITION ( 'UNKNOWN', '', #144, #224 ) ;
#173 = DIRECTION ( 'NONE',  ( 0.0000000000000000000, -1.000000000000000000, 0.0000000000000000000 ) ) ;
#174 = VERTEX_POINT ( 'NONE', #133 ) ;
#175 = LOCAL_TIME ( 13, 36, 28.00000000000000000, #64 ) ;
#176 = DATE_AND_TIME ( #241, #175 ) ;
#177 = FACE_BOUND ( 'NONE', #225, .T. ) ;
#178 = CARTESIAN_POINT ( 'NONE',  ( 3.072503578181957353E-13, 4.999999999999990230, 88.00000000000000000 ) ) ;
#179 = EDGE_CURVE ( 'NONE', #260, #260, #153, .T. ) ;
#180 = DIRECTION ( 'NONE',  ( 0.0000000000000000000, -1.000000000000000000, 0.0000000000000000000 ) ) ;
#181 = PERSON_AND_ORGANIZATION_ROLE ( 'design_supplier' ) ;
#182 =( LENGTH_UNIT ( ) NAMED_UNIT ( * ) SI_UNIT ( .MILLI., .METRE. ) );
#183 = DATE_AND_TIME ( #20, #65 ) ;
#184 = ORIENTED_EDGE ( 'NONE', *, *, #24, .F. ) ;
#185 = LOCAL_TIME ( 13, 36, 28.00000000000000000, #15 ) ;
#186 = DIRECTION ( 'NONE',  ( 0.0000000000000000000, 1.000000000000000000, 0.0000000000000000000 ) ) ;
#187 = DIRECTION ( 'NONE',  ( 3.491481338843133355E-15, -4.327174794786742882E-16, 1.000000000000000000 ) ) ;
#188 = DIRECTION ( 'NONE',  ( -3.491481338843133355E-15, 1.224646799147353207E-16, -1.000000000000000000 ) ) ;
#189 = EDGE_CURVE ( 'NONE', #57, #57, #4, .T. ) ;
#190 = FACE_OUTER_BOUND ( 'NONE', #86, .T. ) ;
#191 = CARTESIAN_POINT ( 'NONE',  ( 1.686636163742914426E-13, -5.000000000000018652, 48.30717967697241733 ) ) ;
#192 = PRODUCT ( '56828', '56828', '', ( #76 ) ) ;
#193 = COORDINATED_UNIVERSAL_TIME_OFFSET ( 1, 0, .AHEAD. ) ;
#194 = FACE_OUTER_BOUND ( 'NONE', #227, .T. ) ;
#195 = APPROVAL_STATUS ( 'not_yet_approved' ) ;
#196 = DIRECTION ( 'NONE',  ( 0.0000000000000000000, 1.000000000000000000, 0.0000000000000000000 ) ) ;
#197 = DIRECTION ( 'NONE',  ( -3.491481338843133355E-15, 4.327174794786742882E-16, -1.000000000000000000 ) ) ;
#198 = CC_DESIGN_PERSON_AND_ORGANIZATION_ASSIGNMENT ( #140, #122, ( #172 ) ) ;
#199 = SECURITY_CLASSIFICATION_LEVEL ( 'unclassified' ) ;
#200 = APPLICATION_CONTEXT ( 'configuration controlled 3d designs of mechanical parts and assemblies' ) ;
#201 = AXIS2_PLACEMENT_3D ( 'NONE', #228, #17, #62 ) ;
#202 = EDGE_CURVE ( 'NONE', #96, #96, #50, .T. ) ;
#203 = CARTESIAN_POINT ( 'NONE',  ( 3.107418391570388560E-13, -1.089935651241144239E-14, 89.00000000000000000 ) ) ;
#204 = ORIENTED_EDGE ( 'NONE', *, *, #32, .F. ) ;
#205 = FACE_OUTER_BOUND ( 'NONE', #221, .T. ) ;
#206 = APPROVAL_PERSON_ORGANIZATION ( #259, #7, #231 ) ;
#207 = CARTESIAN_POINT ( 'NONE',  ( 1.222018468595096801E-13, 3.749399456654634167E-32, 35.00000000000000000 ) ) ;
#208 = AXIS2_PLACEMENT_3D ( 'NONE', #203, #170, #186 ) ;
#209 = CARTESIAN_POINT ( 'NONE',  ( 1.658453635950488407E-13, -2.055408027523702711E-14, 47.50000000000000000 ) ) ;
#210 = CARTESIAN_POINT ( 'NONE',  ( 5.591499235673243460E-15, -1.961233922467703990E-16, 1.601469030771314195 ) ) ;
#211 = DATE_AND_TIME ( #36, #46 ) ;
#212 = FACE_OUTER_BOUND ( 'NONE', #163, .T. ) ;
#213 = AXIS2_PLACEMENT_3D ( 'NONE', #207, #72, #10 ) ;
#214 = FACE_OUTER_BOUND ( 'NONE', #253, .T. ) ;
#215 = ADVANCED_FACE ( 'NONE', ( #214 ), #83, .T. ) ;
#216 = CARTESIAN_POINT ( 'NONE',  ( 0.0000000000000000000, 0.0000000000000000000, 0.0000000000000000000 ) ) ;
#217 = PERSON_AND_ORGANIZATION ( #252, #141 ) ;
#218 = AXIS2_PLACEMENT_3D ( 'NONE', #210, #234, #77 ) ;
#219 = ADVANCED_FACE ( 'NONE', ( #177, #194 ), #59, .T. ) ;
#220 = DIRECTION ( 'NONE',  ( -3.491481338843133355E-15, 4.327174794786742882E-16, -1.000000000000000000 ) ) ;
#221 = EDGE_LOOP ( 'NONE', ( #204 ) ) ;
#222 = CC_DESIGN_SECURITY_CLASSIFICATION ( #78, ( #144 ) ) ;
#223 = EDGE_LOOP ( 'NONE', ( #150 ) ) ;
#224 = DESIGN_CONTEXT ( 'detailed design', #200, 'design' ) ;
#225 = EDGE_LOOP ( 'NONE', ( #128 ) ) ;
#226 = EDGE_CURVE ( 'NONE', #101, #101, #159, .T. ) ;
#227 = EDGE_LOOP ( 'NONE', ( #184 ) ) ;
#228 = CARTESIAN_POINT ( 'NONE',  ( 0.0000000000000000000, 0.0000000000000000000, 0.0000000000000000000 ) ) ;
#229 = DIRECTION ( 'NONE',  ( -3.491481338843133355E-15, 1.224646799147353207E-16, -1.000000000000000000 ) ) ;
#230 = CC_DESIGN_PERSON_AND_ORGANIZATION_ASSIGNMENT ( #2, #261, ( #78 ) ) ;
#231 = APPROVAL_ROLE ( '' ) ;
#232 = CARTESIAN_POINT ( 'NONE',  ( 1.222018468595096801E-13, -4.400000000000021672, 35.00000000000000000 ) ) ;
#233 = APPROVAL_ROLE ( '' ) ;
#234 = DIRECTION ( 'NONE',  ( -3.491481338843133355E-15, 1.224646799147353207E-16, -1.000000000000000000 ) ) ;
#235 = AXIS2_PLACEMENT_3D ( 'NONE', #120, #80, #74 ) ;
#236 = APPLICATION_PROTOCOL_DEFINITION ( 'international standard', 'config_control_design', 1994, #162 ) ;
#237 = ADVANCED_FACE ( 'NONE', ( #19, #92 ), #55, .T. ) ;
#238 = PRODUCT_DEFINITION_SHAPE ( 'NONE', 'NONE',  #172 ) ;
#239 = DIRECTION ( 'NONE',  ( -3.491481338843133355E-15, 1.224646799147353207E-16, -1.000000000000000000 ) ) ;
#240 = ADVANCED_BREP_SHAPE_REPRESENTATION ( '56828', ( #169, #251, #125 ), #88 ) ;
#241 = CALENDAR_DATE ( 2021, 13, 10 ) ;
#242 = PERSON_AND_ORGANIZATION ( #252, #141 ) ;
#243 = AXIS2_PLACEMENT_3D ( 'NONE', #90, #220, #127 ) ;
#244 = APPROVAL ( #43, 'UNSPECIFIED' ) ;
#245 = CARTESIAN_POINT ( 'NONE',  ( 1.222018468595096801E-13, -1.514511178175360324E-14, 35.00000000000000000 ) ) ;
#246 = EDGE_LOOP ( 'NONE', ( #255 ) ) ;
#247 = ORIENTED_EDGE ( 'NONE', *, *, #145, .T. ) ;
#248 = CIRCLE ( 'NONE', #123, 4.400000000000007461 ) ;
#249 = AXIS2_PLACEMENT_3D ( 'NONE', #21, #239, #196 ) ;
#250 = FACE_OUTER_BOUND ( 'NONE', #246, .T. ) ;
#251 = MANIFOLD_SOLID_BREP ( 'Corps-Déplacer/Copier1[2]', #94 ) ;
#252 = PERSON ( 'UNSPECIFIED', 'UNSPECIFIED', 'UNSPECIFIED', ('UNSPECIFIED'), ('UNSPECIFIED'), ('UNSPECIFIED') ) ;
#253 = EDGE_LOOP ( 'NONE', ( #247 ) ) ;
#254 = CARTESIAN_POINT ( 'NONE',  ( 0.0000000000000000000, 0.0000000000000000000, 0.0000000000000000000 ) ) ;
#255 = ORIENTED_EDGE ( 'NONE', *, *, #226, .T. ) ;
#256 = CC_DESIGN_PERSON_AND_ORGANIZATION_ASSIGNMENT ( #93, #181, ( #144 ) ) ;
#257 = AXIS2_PLACEMENT_3D ( 'NONE', #87, #188, #167 ) ;
#258 = DIRECTION ( 'NONE',  ( 1.510825004591027679E-30, 1.000000000000000000, 4.327174794786742389E-16 ) ) ;
#259 = PERSON_AND_ORGANIZATION ( #252, #141 ) ;
#260 = VERTEX_POINT ( 'NONE', #155 ) ;
#261 = PERSON_AND_ORGANIZATION_ROLE ( 'classification_officer' ) ;
#262 = CARTESIAN_POINT ( 'NONE',  ( 3.107418391570388560E-13, 3.999999999999990674, 89.00000000000000000 ) ) ;
#263 = DIRECTION ( 'NONE',  ( -3.491481338843133355E-15, 4.327174794786742882E-16, -1.000000000000000000 ) ) ;
ENDSEC;
END-ISO-10303-21;
