ISO-10303-21;
HEADER;
FILE_DESCRIPTION (( 'STEP AP203' ),
    '1' );
FILE_NAME ('56826.step',
    '2021-10-13T11:36:27',
    ( '' ),
    ( '' ),
    'SwSTEP 2.0',
    'SolidWorks 2019',
    '' );
FILE_SCHEMA (( 'CONFIG_CONTROL_DESIGN' ));
ENDSEC;

DATA;
#1 = DIRECTION ( 'NONE',  ( -3.851859888774481340E-31, -1.000000000000000000, -1.084202172485507146E-16 ) ) ;
#2 = DIRECTION ( 'NONE',  ( 1.000000000000000000, 0.0000000000000000000, 0.0000000000000000000 ) ) ;
#3 = AXIS2_PLACEMENT_3D ( 'NONE', #106, #4, #2 ) ;
#4 = DIRECTION ( 'NONE',  ( 0.0000000000000000000, 0.0000000000000000000, 1.000000000000000000 ) ) ;
#5 = DIRECTION ( 'NONE',  ( 0.0000000000000000000, -1.000000000000000000, 0.0000000000000000000 ) ) ;
#6 = COORDINATED_UNIVERSAL_TIME_OFFSET ( 1, 0, .AHEAD. ) ;
#7 = AXIS2_PLACEMENT_3D ( 'NONE', #199, #56, #172 ) ;
#8 = ADVANCED_FACE ( 'NONE', ( #187, #119 ), #53, .F. ) ;
#9 = CALENDAR_DATE ( 2021, 13, 10 ) ;
#10 = EDGE_LOOP ( 'NONE', ( #236 ) ) ;
#11 = CIRCLE ( 'NONE', #86, 3.199999999999999289 ) ;
#12 = CC_DESIGN_APPROVAL ( #153, ( #182 ) ) ;
#13 = ORIENTED_EDGE ( 'NONE', *, *, #84, .T. ) ;
#14 = CARTESIAN_POINT ( 'NONE',  ( 2.758270257686075477E-13, 2.399615652258957393E-32, 79.00000000000000000 ) ) ;
#15 = CIRCLE ( 'NONE', #78, 3.600000000000012523 ) ;
#16 = CYLINDRICAL_SURFACE ( 'NONE', #195, 3.600000000000005862 ) ;
#17 = DIRECTION ( 'NONE',  ( 0.0000000000000000000, 1.000000000000000000, 0.0000000000000000000 ) ) ;
#18 = CARTESIAN_POINT ( 'NONE',  ( 1.012529588264508673E-13, -1.254880690488155436E-14, 29.00000000000000000 ) ) ;
#19 = LOCAL_TIME ( 13, 36, 27.00000000000000000, #6 ) ;
#20 = DIRECTION ( 'NONE',  ( 3.491481338843133355E-15, -4.327174794786742882E-16, 1.000000000000000000 ) ) ;
#21 = DIRECTION ( 'NONE',  ( 3.491481338843133355E-15, -4.327174794786742882E-16, 1.000000000000000000 ) ) ;
#22 = PERSON ( 'UNSPECIFIED', 'UNSPECIFIED', 'UNSPECIFIED', ('UNSPECIFIED'), ('UNSPECIFIED'), ('UNSPECIFIED') ) ;
#23 =( LENGTH_UNIT ( ) NAMED_UNIT ( * ) SI_UNIT ( .MILLI., .METRE. ) );
#24 = LOCAL_TIME ( 13, 36, 27.00000000000000000, #115 ) ;
#25 = MECHANICAL_CONTEXT ( 'NONE', #63, 'mechanical' ) ;
#26 = CARTESIAN_POINT ( 'NONE',  ( 2.758270257686075477E-13, 3.199999999999989964, 79.00000000000000000 ) ) ;
#27 = CC_DESIGN_DATE_AND_TIME_ASSIGNMENT ( #198, #70, ( #224 ) ) ;
#28 = APPROVAL_ROLE ( '' ) ;
#29 = APPROVAL_STATUS ( 'not_yet_approved' ) ;
#30 = PERSON_AND_ORGANIZATION ( #22, #45 ) ;
#31 = ORIENTED_EDGE ( 'NONE', *, *, #165, .T. ) ;
#32 = SECURITY_CLASSIFICATION ( '', '', #220 ) ;
#33 = PERSON_AND_ORGANIZATION ( #22, #45 ) ;
#34 = ORIENTED_EDGE ( 'NONE', *, *, #165, .F. ) ;
#35 = DIRECTION ( 'NONE',  ( 0.0000000000000000000, 1.000000000000000000, 0.0000000000000000000 ) ) ;
#36 = EDGE_CURVE ( 'NONE', #175, #175, #125, .T. ) ;
#37 = FACE_OUTER_BOUND ( 'NONE', #219, .T. ) ;
#38 = PRODUCT_RELATED_PRODUCT_CATEGORY ( 'detail', '', ( #65 ) ) ;
#39 = EDGE_LOOP ( 'NONE', ( #252 ) ) ;
#40 = DIRECTION ( 'NONE',  ( -3.491481338843133355E-15, 4.327174794786742882E-16, -1.000000000000000000 ) ) ;
#41 = VERTEX_POINT ( 'NONE', #176 ) ;
#42 = FACE_OUTER_BOUND ( 'NONE', #48, .T. ) ;
#43 = EDGE_CURVE ( 'NONE', #207, #207, #246, .T. ) ;
#44 = CARTESIAN_POINT ( 'NONE',  ( 2.730338406975331420E-13, 3.999999999999989786, 78.20000000000001705 ) ) ;
#45 = ORGANIZATION ( 'UNSPECIFIED', 'UNSPECIFIED', '' ) ;
#46 = FACE_OUTER_BOUND ( 'NONE', #180, .T. ) ;
#47 = APPROVAL_DATE_TIME ( #160, #103 ) ;
#48 = EDGE_LOOP ( 'NONE', ( #97 ) ) ;
#49 = DATE_TIME_ROLE ( 'classification_date' ) ;
#50 = CONICAL_SURFACE ( 'NONE', #99, 3.999999999999989786, 1.221730476396026610 ) ;
#51 = EDGE_CURVE ( 'NONE', #41, #41, #129, .T. ) ;
#52 = ORIENTED_EDGE ( 'NONE', *, *, #191, .F. ) ;
#53 = TOROIDAL_SURFACE ( 'NONE', #57, 4.600000000000012967, 1.000000000000000000 ) ;
#54 = PLANE ( 'NONE',  #121 ) ;
#55 = CARTESIAN_POINT ( 'NONE',  ( 0.0000000000000000000, 0.0000000000000000000, 0.0000000000000000000 ) ) ;
#56 = DIRECTION ( 'NONE',  ( -3.491481338843133355E-15, 1.224646799147353207E-16, -1.000000000000000000 ) ) ;
#57 = AXIS2_PLACEMENT_3D ( 'NONE', #144, #201, #261 ) ;
#58 = CARTESIAN_POINT ( 'NONE',  ( 0.0000000000000000000, 0.0000000000000000000, 0.0000000000000000000 ) ) ;
#59 = CARTESIAN_POINT ( 'NONE',  ( 1.396592535537253342E-13, -1.730869917914697153E-14, 40.00000000000000000 ) ) ;
#60 = CC_DESIGN_PERSON_AND_ORGANIZATION_ASSIGNMENT ( #69, #196, ( #32 ) ) ;
#61 = CONICAL_SURFACE ( 'NONE', #256, 3.199999999999999289, 0.7853981633974599363 ) ;
#62 = CARTESIAN_POINT ( 'NONE',  ( 2.758270257686075477E-13, -9.674709713264090904E-15, 79.00000000000000000 ) ) ;
#63 = APPLICATION_CONTEXT ( 'configuration controlled 3d designs of mechanical parts and assemblies' ) ;
#64 = CC_DESIGN_DATE_AND_TIME_ASSIGNMENT ( #234, #49, ( #32 ) ) ;
#65 = PRODUCT ( '56826', '56826', '', ( #25 ) ) ;
#66 = FACE_BOUND ( 'NONE', #216, .T. ) ;
#67 = DIRECTION ( 'NONE',  ( -3.491481338843133355E-15, 1.224646799147353207E-16, -1.000000000000000000 ) ) ;
#68 = APPROVAL_PERSON_ORGANIZATION ( #91, #153, #71 ) ;
#69 = PERSON_AND_ORGANIZATION ( #22, #45 ) ;
#70 = DATE_TIME_ROLE ( 'creation_date' ) ;
#71 = APPROVAL_ROLE ( '' ) ;
#72 = AXIS2_PLACEMENT_3D ( 'NONE', #58, #244, #147 ) ;
#73 = DATE_AND_TIME ( #218, #231 ) ;
#74 = PERSON_AND_ORGANIZATION ( #22, #45 ) ;
#75 = ORIENTED_EDGE ( 'NONE', *, *, #135, .F. ) ;
#76 = ADVANCED_BREP_SHAPE_REPRESENTATION ( '56826', ( #170, #249, #3 ), #212 ) ;
#77 = DIRECTION ( 'NONE',  ( 3.491481338843133355E-15, -1.224646799147353207E-16, 1.000000000000000000 ) ) ;
#78 = AXIS2_PLACEMENT_3D ( 'NONE', #59, #189, #35 ) ;
#79 = DIRECTION ( 'NONE',  ( 0.0000000000000000000, -1.000000000000000000, 0.0000000000000000000 ) ) ;
#80 = DIRECTION ( 'NONE',  ( -3.491481338843133355E-15, 1.224646799147353207E-16, -1.000000000000000000 ) ) ;
#81 = AXIS2_PLACEMENT_3D ( 'NONE', #190, #77, #168 ) ;
#82 = FACE_OUTER_BOUND ( 'NONE', #116, .T. ) ;
#83 =( NAMED_UNIT ( * ) PLANE_ANGLE_UNIT ( ) SI_UNIT ( $, .RADIAN. ) );
#84 = EDGE_CURVE ( 'NONE', #128, #128, #238, .T. ) ;
#85 = APPLICATION_PROTOCOL_DEFINITION ( 'international standard', 'config_control_design', 1994, #63 ) ;
#86 = AXIS2_PLACEMENT_3D ( 'NONE', #101, #80, #17 ) ;
#87 = FACE_OUTER_BOUND ( 'NONE', #158, .T. ) ;
#88 = APPROVAL ( #194, 'UNSPECIFIED' ) ;
#89 = AXIS2_PLACEMENT_3D ( 'NONE', #18, #263, #169 ) ;
#90 = PERSON_AND_ORGANIZATION ( #22, #45 ) ;
#91 = PERSON_AND_ORGANIZATION ( #22, #45 ) ;
#92 = ADVANCED_FACE ( 'NONE', ( #221, #240 ), #222, .T. ) ;
#93 = ORIENTED_EDGE ( 'NONE', *, *, #191, .T. ) ;
#94 = PERSON_AND_ORGANIZATION_ROLE ( 'creator' ) ;
#95 = AXIS2_PLACEMENT_3D ( 'NONE', #154, #131, #150 ) ;
#96 = CALENDAR_DATE ( 2021, 13, 10 ) ;
#97 = ORIENTED_EDGE ( 'NONE', *, *, #51, .F. ) ;
#98 = DIRECTION ( 'NONE',  ( 4.275831445896957731E-31, 1.000000000000000000, 1.224646799147353207E-16 ) ) ;
#99 = AXIS2_PLACEMENT_3D ( 'NONE', #110, #229, #1 ) ;
#100 = DIRECTION ( 'NONE',  ( 1.510825004591027855E-30, 1.000000000000000000, 4.327174794786743375E-16 ) ) ;
#101 = CARTESIAN_POINT ( 'NONE',  ( 2.758270257686075477E-13, -9.674709713264090904E-15, 79.00000000000000000 ) ) ;
#102 = DIRECTION ( 'NONE',  ( -3.491481338843133355E-15, 1.224646799147353207E-16, -1.000000000000000000 ) ) ;
#103 = APPROVAL ( #162, 'UNSPECIFIED' ) ;
#104 = AXIS2_PLACEMENT_3D ( 'NONE', #171, #102, #241 ) ;
#105 = PLANE ( 'NONE',  #81 ) ;
#106 = CARTESIAN_POINT ( 'NONE',  ( 0.0000000000000000000, 0.0000000000000000000, 0.0000000000000000000 ) ) ;
#107 = VERTEX_POINT ( 'NONE', #26 ) ;
#108 = APPROVAL_PERSON_ORGANIZATION ( #90, #88, #137 ) ;
#109 = CC_DESIGN_SECURITY_CLASSIFICATION ( #32, ( #182 ) ) ;
#110 = CARTESIAN_POINT ( 'NONE',  ( 5.083181123339289718E-15, -1.782939929516086737E-16, 1.455880937064824687 ) ) ;
#111 = CARTESIAN_POINT ( 'NONE',  ( 1.396592535537253342E-13, 3.599999999999995204, 40.00000000000000000 ) ) ;
#112 = AXIS2_PLACEMENT_3D ( 'NONE', #140, #120, #79 ) ;
#113 = COORDINATED_UNIVERSAL_TIME_OFFSET ( 1, 0, .AHEAD. ) ;
#114 = ORIENTED_EDGE ( 'NONE', *, *, #151, .T. ) ;
#115 = COORDINATED_UNIVERSAL_TIME_OFFSET ( 1, 0, .AHEAD. ) ;
#116 = EDGE_LOOP ( 'NONE', ( #93 ) ) ;
#117 = APPLICATION_PROTOCOL_DEFINITION ( 'international standard', 'config_control_design', 1994, #174 ) ;
#118 = EDGE_LOOP ( 'NONE', ( #203 ) ) ;
#119 = FACE_OUTER_BOUND ( 'NONE', #259, .T. ) ;
#120 = DIRECTION ( 'NONE',  ( -3.491481338843133355E-15, 1.224646799147353207E-16, -1.000000000000000000 ) ) ;
#121 = AXIS2_PLACEMENT_3D ( 'NONE', #14, #148, #205 ) ;
#122 = EDGE_LOOP ( 'NONE', ( #185 ) ) ;
#123 = DIRECTION ( 'NONE',  ( -3.491481338843133355E-15, 1.224646799147353207E-16, -1.000000000000000000 ) ) ;
#124 = CARTESIAN_POINT ( 'NONE',  ( 1.430137623878785705E-13, -1.772444094223618515E-14, 40.96076951545865086 ) ) ;
#125 = CIRCLE ( 'NONE', #204, 3.733974596215575037 ) ;
#126 = PLANE ( 'NONE',  #95 ) ;
#127 =( NAMED_UNIT ( * ) SI_UNIT ( $, .STERADIAN. ) SOLID_ANGLE_UNIT ( ) );
#128 = VERTEX_POINT ( 'NONE', #152 ) ;
#129 = CIRCLE ( 'NONE', #112, 3.600000000000005862 ) ;
#130 = CC_DESIGN_APPROVAL ( #103, ( #32 ) ) ;
#131 = DIRECTION ( 'NONE',  ( 3.491481338843133355E-15, -1.224646799147353207E-16, 1.000000000000000000 ) ) ;
#132 = CARTESIAN_POINT ( 'NONE',  ( 1.430137623878785705E-13, -4.000000000000014211, 40.96076951545865086 ) ) ;
#133 = PRODUCT_DEFINITION_SHAPE ( 'NONE', 'NONE',  #224 ) ;
#134 = EDGE_LOOP ( 'NONE', ( #34 ) ) ;
#135 = EDGE_CURVE ( 'NONE', #245, #245, #186, .T. ) ;
#136 = ORIENTED_EDGE ( 'NONE', *, *, #51, .T. ) ;
#137 = APPROVAL_ROLE ( '' ) ;
#138 = CC_DESIGN_PERSON_AND_ORGANIZATION_ASSIGNMENT ( #30, #250, ( #65 ) ) ;
#139 = CONICAL_SURFACE ( 'NONE', #262, 4.500000000000013323, 0.5235987755983037006 ) ;
#140 = CARTESIAN_POINT ( 'NONE',  ( 1.012529588264508673E-13, -1.254880690488155436E-14, 29.00000000000000000 ) ) ;
#141 = DIRECTION ( 'NONE',  ( 0.0000000000000000000, -1.000000000000000000, 0.0000000000000000000 ) ) ;
#142 = ADVANCED_FACE ( 'NONE', ( #37, #200 ), #16, .T. ) ;
#143 = APPROVAL_PERSON_ORGANIZATION ( #74, #103, #28 ) ;
#144 = CARTESIAN_POINT ( 'NONE',  ( 1.396592535537253595E-13, -1.734723475976807094E-14, 40.00000000000000711 ) ) ;
#145 = CC_DESIGN_APPROVAL ( #88, ( #224 ) ) ;
#146 = DIRECTION ( 'NONE',  ( 0.0000000000000000000, 1.000000000000000000, 0.0000000000000000000 ) ) ;
#147 = DIRECTION ( 'NONE',  ( 1.510825004591027855E-30, 1.000000000000000000, 4.327174794786743375E-16 ) ) ;
#148 = DIRECTION ( 'NONE',  ( -3.491481338843133355E-15, 1.224646799147353207E-16, -1.000000000000000000 ) ) ;
#149 = LOCAL_TIME ( 13, 36, 27.00000000000000000, #156 ) ;
#150 = DIRECTION ( 'NONE',  ( -4.275831445896958607E-31, -1.000000000000000000, -1.224646799147353207E-16 ) ) ;
#151 = EDGE_CURVE ( 'NONE', #107, #107, #11, .T. ) ;
#152 = CARTESIAN_POINT ( 'NONE',  ( 1.012529588264508673E-13, -3.600000000000018741, 29.00000000000000000 ) ) ;
#153 = APPROVAL ( #29, 'UNSPECIFIED' ) ;
#154 = CARTESIAN_POINT ( 'NONE',  ( 1.012529588264508673E-13, 2.999519565323705363E-32, 29.00000000000000000 ) ) ;
#155 = DESIGN_CONTEXT ( 'detailed design', #174, 'design' ) ;
#156 = COORDINATED_UNIVERSAL_TIME_OFFSET ( 1, 0, .AHEAD. ) ;
#157 = SHAPE_DEFINITION_REPRESENTATION ( #133, #76 ) ;
#158 = EDGE_LOOP ( 'NONE', ( #31 ) ) ;
#159 = CC_DESIGN_PERSON_AND_ORGANIZATION_ASSIGNMENT ( #215, #94, ( #182 ) ) ;
#160 = DATE_AND_TIME ( #237, #209 ) ;
#161 = ORIENTED_EDGE ( 'NONE', *, *, #36, .F. ) ;
#162 = APPROVAL_STATUS ( 'not_yet_approved' ) ;
#163 = ORIENTED_EDGE ( 'NONE', *, *, #36, .T. ) ;
#164 = UNCERTAINTY_MEASURE_WITH_UNIT (LENGTH_MEASURE( 1.000000000000000082E-05 ), #23, 'distance_accuracy_value', 'NONE');
#165 = EDGE_CURVE ( 'NONE', #232, #232, #235, .T. ) ;
#166 = EDGE_LOOP ( 'NONE', ( #161 ) ) ;
#167 = AXIS2_PLACEMENT_3D ( 'NONE', #124, #20, #141 ) ;
#168 = DIRECTION ( 'NONE',  ( -4.275831445896958607E-31, -1.000000000000000000, -1.224646799147353207E-16 ) ) ;
#169 = DIRECTION ( 'NONE',  ( 0.0000000000000000000, -1.000000000000000000, 0.0000000000000000000 ) ) ;
#170 = MANIFOLD_SOLID_BREP ( 'Corps-Déplacer/Copier1[1]', #177 ) ;
#171 = CARTESIAN_POINT ( 'NONE',  ( 4.574863011005380941E-15, -1.604645936564485015E-16, 1.310292843358347836 ) ) ;
#172 = DIRECTION ( 'NONE',  ( 0.0000000000000000000, 1.000000000000000000, 0.0000000000000000000 ) ) ;
#173 = CYLINDRICAL_SURFACE ( 'NONE', #72, 3.600000000000005862 ) ;
#174 = APPLICATION_CONTEXT ( 'configuration controlled 3d designs of mechanical parts and assemblies' ) ;
#175 = VERTEX_POINT ( 'NONE', #192 ) ;
#176 = CARTESIAN_POINT ( 'NONE',  ( 1.012529588264508673E-13, -3.600000000000018741, 29.00000000000000000 ) ) ;
#177 = CLOSED_SHELL ( 'NONE', ( #92, #227, #214, #197, #258, #8, #206 ) ) ;
#178 = APPROVAL_DATE_TIME ( #73, #88 ) ;
#179 = COORDINATED_UNIVERSAL_TIME_OFFSET ( 1, 0, .AHEAD. ) ;
#180 = EDGE_LOOP ( 'NONE', ( #75 ) ) ;
#181 = DATE_AND_TIME ( #96, #19 ) ;
#182 = PRODUCT_DEFINITION_FORMATION_WITH_SPECIFIED_SOURCE ( 'ANY', '', #65, .NOT_KNOWN. ) ;
#183 = ORIENTED_EDGE ( 'NONE', *, *, #43, .F. ) ;
#184 = PERSON_AND_ORGANIZATION ( #22, #45 ) ;
#185 = ORIENTED_EDGE ( 'NONE', *, *, #84, .F. ) ;
#186 = CIRCLE ( 'NONE', #167, 3.999999999999996447 ) ;
#187 = FACE_OUTER_BOUND ( 'NONE', #188, .T. ) ;
#188 = EDGE_LOOP ( 'NONE', ( #52 ) ) ;
#189 = DIRECTION ( 'NONE',  ( -3.491481338843133355E-15, 4.327174794786742882E-16, -1.000000000000000000 ) ) ;
#190 = CARTESIAN_POINT ( 'NONE',  ( 1.012529588264508673E-13, 2.999519565323705363E-32, 29.00000000000000000 ) ) ;
#191 = EDGE_CURVE ( 'NONE', #230, #230, #15, .T. ) ;
#192 = CARTESIAN_POINT ( 'NONE',  ( 1.414049942231469451E-13, 3.733974596215557717, 40.50000000000000711 ) ) ;
#193 = CARTESIAN_POINT ( 'NONE',  ( 1.460374739241561001E-13, -1.809918527212629551E-14, 41.82679491924310611 ) ) ;
#194 = APPROVAL_STATUS ( 'not_yet_approved' ) ;
#195 = AXIS2_PLACEMENT_3D ( 'NONE', #202, #40, #100 ) ;
#196 = PERSON_AND_ORGANIZATION_ROLE ( 'classification_officer' ) ;
#197 = ADVANCED_FACE ( 'NONE', ( #82, #243 ), #173, .T. ) ;
#198 = DATE_AND_TIME ( #9, #24 ) ;
#199 = CARTESIAN_POINT ( 'NONE',  ( 2.730338406975331420E-13, -9.576737969332304047E-15, 78.20000000000001705 ) ) ;
#200 = FACE_OUTER_BOUND ( 'NONE', #134, .T. ) ;
#201 = DIRECTION ( 'NONE',  ( -3.491481338843133355E-15, 4.327174794786742882E-16, -1.000000000000000000 ) ) ;
#202 = CARTESIAN_POINT ( 'NONE',  ( 0.0000000000000000000, 0.0000000000000000000, 0.0000000000000000000 ) ) ;
#203 = ORIENTED_EDGE ( 'NONE', *, *, #135, .T. ) ;
#204 = AXIS2_PLACEMENT_3D ( 'NONE', #223, #257, #146 ) ;
#205 = DIRECTION ( 'NONE',  ( 4.275831445896958607E-31, 1.000000000000000000, 1.224646799147353207E-16 ) ) ;
#206 = ADVANCED_FACE ( 'NONE', ( #226 ), #105, .F. ) ;
#207 = VERTEX_POINT ( 'NONE', #44 ) ;
#208 = CARTESIAN_POINT ( 'NONE',  ( 4.574863011005379363E-15, -3.600000000000005862, 1.310292843358347392 ) ) ;
#209 = LOCAL_TIME ( 13, 36, 27.00000000000000000, #179 ) ;
#210 = AXIS2_PLACEMENT_3D ( 'NONE', #55, #123, #98 ) ;
#211 = FACE_BOUND ( 'NONE', #166, .T. ) ;
#212 =( GEOMETRIC_REPRESENTATION_CONTEXT ( 3 ) GLOBAL_UNCERTAINTY_ASSIGNED_CONTEXT ( ( #164 ) ) GLOBAL_UNIT_ASSIGNED_CONTEXT ( ( #23, #83, #127 ) ) REPRESENTATION_CONTEXT ( 'NONE', 'WORKASPACE' ) );
#213 = PERSON_AND_ORGANIZATION_ROLE ( 'design_supplier' ) ;
#214 = ADVANCED_FACE ( 'NONE', ( #239 ), #54, .F. ) ;
#215 = PERSON_AND_ORGANIZATION ( #22, #45 ) ;
#216 = EDGE_LOOP ( 'NONE', ( #114 ) ) ;
#217 = CC_DESIGN_PERSON_AND_ORGANIZATION_ASSIGNMENT ( #184, #213, ( #182 ) ) ;
#218 = CALENDAR_DATE ( 2021, 13, 10 ) ;
#219 = EDGE_LOOP ( 'NONE', ( #136 ) ) ;
#220 = SECURITY_CLASSIFICATION_LEVEL ( 'unclassified' ) ;
#221 = FACE_OUTER_BOUND ( 'NONE', #118, .T. ) ;
#222 = CYLINDRICAL_SURFACE ( 'NONE', #210, 3.999999999999996447 ) ;
#223 = CARTESIAN_POINT ( 'NONE',  ( 1.414049942231469451E-13, -1.752505791888631341E-14, 40.50000000000000711 ) ) ;
#224 = PRODUCT_DEFINITION ( 'UNKNOWN', '', #182, #155 ) ;
#225 = EDGE_LOOP ( 'NONE', ( #183 ) ) ;
#226 = FACE_OUTER_BOUND ( 'NONE', #254, .T. ) ;
#227 = ADVANCED_FACE ( 'NONE', ( #247, #66 ), #61, .T. ) ;
#228 = DIRECTION ( 'NONE',  ( 0.0000000000000000000, 1.000000000000000000, 0.0000000000000000000 ) ) ;
#229 = DIRECTION ( 'NONE',  ( 3.491481338843133355E-15, -1.224646799147353207E-16, 1.000000000000000000 ) ) ;
#230 = VERTEX_POINT ( 'NONE', #111 ) ;
#231 = LOCAL_TIME ( 13, 36, 27.00000000000000000, #113 ) ;
#232 = VERTEX_POINT ( 'NONE', #208 ) ;
#233 = CALENDAR_DATE ( 2021, 13, 10 ) ;
#234 = DATE_AND_TIME ( #233, #149 ) ;
#235 = CIRCLE ( 'NONE', #104, 3.600000000000005862 ) ;
#236 = ORIENTED_EDGE ( 'NONE', *, *, #43, .T. ) ;
#237 = CALENDAR_DATE ( 2021, 13, 10 ) ;
#238 = CIRCLE ( 'NONE', #89, 3.600000000000005862 ) ;
#239 = FACE_OUTER_BOUND ( 'NONE', #39, .T. ) ;
#240 = FACE_OUTER_BOUND ( 'NONE', #10, .T. ) ;
#241 = DIRECTION ( 'NONE',  ( -4.279844320860517014E-31, -1.000000000000000000, -1.204669080539447372E-16 ) ) ;
#242 = CLOSED_SHELL ( 'NONE', ( #260, #142, #251 ) ) ;
#243 = FACE_OUTER_BOUND ( 'NONE', #122, .T. ) ;
#244 = DIRECTION ( 'NONE',  ( -3.491481338843133355E-15, 4.327174794786742882E-16, -1.000000000000000000 ) ) ;
#245 = VERTEX_POINT ( 'NONE', #132 ) ;
#246 = CIRCLE ( 'NONE', #7, 3.999999999999999112 ) ;
#247 = FACE_OUTER_BOUND ( 'NONE', #225, .T. ) ;
#248 = APPROVAL_DATE_TIME ( #181, #153 ) ;
#249 = MANIFOLD_SOLID_BREP ( 'Corps-Déplacer/Copier1[2]', #242 ) ;
#250 = PERSON_AND_ORGANIZATION_ROLE ( 'design_owner' ) ;
#251 = ADVANCED_FACE ( 'NONE', ( #42 ), #126, .T. ) ;
#252 = ORIENTED_EDGE ( 'NONE', *, *, #151, .F. ) ;
#253 = PERSON_AND_ORGANIZATION_ROLE ( 'creator' ) ;
#254 = EDGE_LOOP ( 'NONE', ( #13 ) ) ;
#255 = CC_DESIGN_PERSON_AND_ORGANIZATION_ASSIGNMENT ( #33, #253, ( #224 ) ) ;
#256 = AXIS2_PLACEMENT_3D ( 'NONE', #62, #67, #228 ) ;
#257 = DIRECTION ( 'NONE',  ( -3.491481338843133355E-15, 4.327174794786742882E-16, -1.000000000000000000 ) ) ;
#258 = ADVANCED_FACE ( 'NONE', ( #211, #46 ), #139, .T. ) ;
#259 = EDGE_LOOP ( 'NONE', ( #163 ) ) ;
#260 = ADVANCED_FACE ( 'NONE', ( #87 ), #50, .T. ) ;
#261 = DIRECTION ( 'NONE',  ( 1.510825004591027679E-30, 1.000000000000000000, 4.327174794786742389E-16 ) ) ;
#262 = AXIS2_PLACEMENT_3D ( 'NONE', #193, #21, #5 ) ;
#263 = DIRECTION ( 'NONE',  ( -3.491481338843133355E-15, 1.224646799147353207E-16, -1.000000000000000000 ) ) ;
ENDSEC;
END-ISO-10303-21;
