ISO-10303-21;
HEADER;
FILE_DESCRIPTION (( 'STEP AP203' ),
    '1' );
FILE_NAME ('56731.step',
    '2021-11-15T14:31:33',
    ( '' ),
    ( '' ),
    'SwSTEP 2.0',
    'SolidWorks 2019',
    '' );
FILE_SCHEMA (( 'CONFIG_CONTROL_DESIGN' ));
ENDSEC;

DATA;
#1 = AXIS2_PLACEMENT_3D ( 'NONE', #161, #143, #27 ) ;
#2 = EDGE_CURVE ( 'NONE', #66, #66, #173, .T. ) ;
#3 = FACE_OUTER_BOUND ( 'NONE', #25, .T. ) ;
#4 = DIRECTION ( 'NONE',  ( 3.491481338843133355E-15, -1.244996138440932305E-16, 1.000000000000000000 ) ) ;
#5 = AXIS2_PLACEMENT_3D ( 'NONE', #26, #61, #127 ) ;
#6 = DIRECTION ( 'NONE',  ( -3.491481338843133355E-15, 1.224646799147353207E-16, -1.000000000000000000 ) ) ;
#7 = DIRECTION ( 'NONE',  ( 3.491481338843133355E-15, -1.224646799147353207E-16, 1.000000000000000000 ) ) ;
#8 = ORIENTED_EDGE ( 'NONE', *, *, #142, .F. ) ;
#9 = AXIS2_PLACEMENT_3D ( 'NONE', #126, #108, #212 ) ;
#10 = VERTEX_POINT ( 'NONE', #219 ) ;
#11 = PERSON ( 'UNSPECIFIED', 'UNSPECIFIED', 'UNSPECIFIED', ('UNSPECIFIED'), ('UNSPECIFIED'), ('UNSPECIFIED') ) ;
#12 = PLANE ( 'NONE',  #194 ) ;
#13 = ADVANCED_FACE ( 'NONE', ( #39, #180 ), #196, .T. ) ;
#14 = AXIS2_PLACEMENT_3D ( 'NONE', #160, #4, #176 ) ;
#15 = VERTEX_POINT ( 'NONE', #52 ) ;
#16 = APPROVAL_DATE_TIME ( #141, #122 ) ;
#17 = PERSON_AND_ORGANIZATION ( #11, #101 ) ;
#18 = CC_DESIGN_SECURITY_CLASSIFICATION ( #117, ( #162 ) ) ;
#19 = PERSON_AND_ORGANIZATION ( #11, #101 ) ;
#20 = EDGE_LOOP ( 'NONE', ( #77 ) ) ;
#21 = APPROVAL ( #114, 'UNSPECIFIED' ) ;
#22 = CC_DESIGN_APPROVAL ( #122, ( #117 ) ) ;
#23 = EDGE_LOOP ( 'NONE', ( #107 ) ) ;
#24 = EDGE_LOOP ( 'NONE', ( #8 ) ) ;
#25 = EDGE_LOOP ( 'NONE', ( #56 ) ) ;
#26 = CARTESIAN_POINT ( 'NONE',  ( -3.260160588223707770E-31, 1.162511538549624861E-32, -9.337471038306992290E-17 ) ) ;
#27 = DIRECTION ( 'NONE',  ( -4.275831445896958607E-31, -1.000000000000000000, -1.224646799147353207E-16 ) ) ;
#28 = PRODUCT_RELATED_PRODUCT_CATEGORY ( 'detail', '', ( #170 ) ) ;
#29 = DATE_AND_TIME ( #70, #83 ) ;
#30 = CARTESIAN_POINT ( 'NONE',  ( 0.0000000000000000000, 0.0000000000000000000, 0.0000000000000000000 ) ) ;
#31 = CIRCLE ( 'NONE', #9, 1.199999999999996403 ) ;
#32 = CYLINDRICAL_SURFACE ( 'NONE', #199, 1.499999999999994893 ) ;
#33 = APPLICATION_CONTEXT ( 'configuration controlled 3d designs of mechanical parts and assemblies' ) ;
#34 = CALENDAR_DATE ( 2021, 15, 11 ) ;
#35 = CIRCLE ( 'NONE', #203, 0.7500000000000012212 ) ;
#36 = EDGE_CURVE ( 'NONE', #99, #99, #222, .T. ) ;
#37 = EDGE_LOOP ( 'NONE', ( #175 ) ) ;
#38 = AXIS2_PLACEMENT_3D ( 'NONE', #134, #51, #132 ) ;
#39 = FACE_OUTER_BOUND ( 'NONE', #129, .T. ) ;
#40 = CARTESIAN_POINT ( 'NONE',  ( 1.396592535537252711E-14, -4.979984553763727249E-16, 3.999999999999998224 ) ) ;
#41 = CARTESIAN_POINT ( 'NONE',  ( 0.0000000000000000000, 0.0000000000000000000, 0.0000000000000000000 ) ) ;
#42 = DIRECTION ( 'NONE',  ( 3.491481338843133355E-15, -1.244996138440932305E-16, 1.000000000000000000 ) ) ;
#43 = AXIS2_PLACEMENT_3D ( 'NONE', #215, #146, #125 ) ;
#44 = AXIS2_PLACEMENT_3D ( 'NONE', #41, #178, #195 ) ;
#45 = ADVANCED_FACE ( 'NONE', ( #164 ), #81, .F. ) ;
#46 = CARTESIAN_POINT ( 'NONE',  ( -8.551680453529350800E-31, 2.999525725151307090E-32, -2.449298628175645296E-16 ) ) ;
#47 =( NAMED_UNIT ( * ) SI_UNIT ( $, .STERADIAN. ) SOLID_ANGLE_UNIT ( ) );
#48 = CALENDAR_DATE ( 2021, 15, 11 ) ;
#49 = PERSON_AND_ORGANIZATION ( #11, #101 ) ;
#50 = MANIFOLD_SOLID_BREP ( 'Corps-Déplacer/Copier1[2]', #110 ) ;
#51 = DIRECTION ( 'NONE',  ( -3.491481338843133355E-15, 1.224646799147353207E-16, -1.000000000000000000 ) ) ;
#52 = CARTESIAN_POINT ( 'NONE',  ( 2.577389637849558787E-14, 1.499999999999994449, 7.381937314617155188 ) ) ;
#53 = DATE_AND_TIME ( #34, #73 ) ;
#54 = MANIFOLD_SOLID_BREP ( 'Corps-Déplacer/Copier1[1]', #210 ) ;
#55 = PERSON_AND_ORGANIZATION_ROLE ( 'design_supplier' ) ;
#56 = ORIENTED_EDGE ( 'NONE', *, *, #142, .T. ) ;
#57 = CC_DESIGN_PERSON_AND_ORGANIZATION_ASSIGNMENT ( #68, #204, ( #170 ) ) ;
#58 = CARTESIAN_POINT ( 'NONE',  ( 1.396592535537252711E-14, 0.0000000000000000000, 3.999999999999998224 ) ) ;
#59 = AXIS2_PLACEMENT_3D ( 'NONE', #198, #6, #192 ) ;
#60 = FACE_OUTER_BOUND ( 'NONE', #191, .T. ) ;
#61 = DIRECTION ( 'NONE',  ( 3.491481338843133355E-15, -1.244996138440932305E-16, 1.000000000000000000 ) ) ;
#62 = ORIENTED_EDGE ( 'NONE', *, *, #102, .F. ) ;
#63 = ADVANCED_FACE ( 'NONE', ( #3, #78 ), #109, .F. ) ;
#64 = DIRECTION ( 'NONE',  ( 3.491481338843133355E-15, -1.244996138440932305E-16, 1.000000000000000000 ) ) ;
#65 = APPROVAL_PERSON_ORGANIZATION ( #209, #122, #87 ) ;
#66 = VERTEX_POINT ( 'NONE', #153 ) ;
#67 = MECHANICAL_CONTEXT ( 'NONE', #157, 'mechanical' ) ;
#68 = PERSON_AND_ORGANIZATION ( #11, #101 ) ;
#69 = DIRECTION ( 'NONE',  ( 0.0000000000000000000, 0.0000000000000000000, 1.000000000000000000 ) ) ;
#70 = CALENDAR_DATE ( 2021, 15, 11 ) ;
#71 = EDGE_CURVE ( 'NONE', #169, #169, #31, .T. ) ;
#72 = SECURITY_CLASSIFICATION_LEVEL ( 'unclassified' ) ;
#73 = LOCAL_TIME ( 15, 31, 33.00000000000000000, #223 ) ;
#74 = AXIS2_PLACEMENT_3D ( 'NONE', #30, #69, #152 ) ;
#75 = DATE_TIME_ROLE ( 'classification_date' ) ;
#76 = CIRCLE ( 'NONE', #43, 1.499999999999994893 ) ;
#77 = ORIENTED_EDGE ( 'NONE', *, *, #71, .T. ) ;
#78 = FACE_OUTER_BOUND ( 'NONE', #144, .T. ) ;
#79 = FACE_BOUND ( 'NONE', #20, .T. ) ;
#80 = ADVANCED_FACE ( 'NONE', ( #145 ), #94, .T. ) ;
#81 = PLANE ( 'NONE',  #1 ) ;
#82 = APPLICATION_PROTOCOL_DEFINITION ( 'international standard', 'config_control_design', 1994, #157 ) ;
#83 = LOCAL_TIME ( 15, 31, 33.00000000000000000, #150 ) ;
#84 = VERTEX_POINT ( 'NONE', #205 ) ;
#85 = CARTESIAN_POINT ( 'NONE',  ( 1.326762908760390423E-13, 8.998558695971051224E-33, 38.00000000000000000 ) ) ;
#86 = ADVANCED_FACE ( 'NONE', ( #60 ), #96, .F. ) ;
#87 = APPROVAL_ROLE ( '' ) ;
#88 = APPROVAL_PERSON_ORGANIZATION ( #208, #218, #139 ) ;
#89 = ADVANCED_BREP_SHAPE_REPRESENTATION ( '56731', ( #54, #50, #74 ), #184 ) ;
#90 = COORDINATED_UNIVERSAL_TIME_OFFSET ( 1, 0, .AHEAD. ) ;
#91 = CIRCLE ( 'NONE', #38, 1.499999999999996669 ) ;
#92 = DIRECTION ( 'NONE',  ( -4.275831445896958607E-31, -1.000000000000000000, -1.224646799147353207E-16 ) ) ;
#93 = EDGE_LOOP ( 'NONE', ( #62 ) ) ;
#94 = PLANE ( 'NONE',  #138 ) ;
#95 = ADVANCED_FACE ( 'NONE', ( #147, #79 ), #124, .T. ) ;
#96 = PLANE ( 'NONE',  #159 ) ;
#97 = LOCAL_TIME ( 15, 31, 33.00000000000000000, #220 ) ;
#98 = APPLICATION_PROTOCOL_DEFINITION ( 'international standard', 'config_control_design', 1994, #33 ) ;
#99 = VERTEX_POINT ( 'NONE', #217 ) ;
#100 = CARTESIAN_POINT ( 'NONE',  ( 0.0000000000000000000, 0.0000000000000000000, 0.0000000000000000000 ) ) ;
#101 = ORGANIZATION ( 'UNSPECIFIED', 'UNSPECIFIED', '' ) ;
#102 = EDGE_CURVE ( 'NONE', #15, #15, #76, .T. ) ;
#103 = CALENDAR_DATE ( 2021, 15, 11 ) ;
#104 = APPROVAL_DATE_TIME ( #53, #218 ) ;
#105 = CC_DESIGN_DATE_AND_TIME_ASSIGNMENT ( #137, #75, ( #117 ) ) ;
#106 = APPROVAL_PERSON_ORGANIZATION ( #49, #21, #116 ) ;
#107 = ORIENTED_EDGE ( 'NONE', *, *, #158, .T. ) ;
#108 = DIRECTION ( 'NONE',  ( -3.491481338843133355E-15, 1.224646799147353207E-16, -1.000000000000000000 ) ) ;
#109 = TOROIDAL_SURFACE ( 'NONE', #167, 8.750000000000000000, 8.000000000000000000 ) ;
#110 = CLOSED_SHELL ( 'NONE', ( #80, #13, #86 ) ) ;
#111 = ORIENTED_EDGE ( 'NONE', *, *, #36, .T. ) ;
#112 = DIRECTION ( 'NONE',  ( 0.0000000000000000000, -1.000000000000000000, 0.0000000000000000000 ) ) ;
#113 = FACE_OUTER_BOUND ( 'NONE', #23, .T. ) ;
#114 = APPROVAL_STATUS ( 'not_yet_approved' ) ;
#115 = CC_DESIGN_PERSON_AND_ORGANIZATION_ASSIGNMENT ( #155, #172, ( #162 ) ) ;
#116 = APPROVAL_ROLE ( '' ) ;
#117 = SECURITY_CLASSIFICATION ( '', '', #72 ) ;
#118 = APPROVAL_STATUS ( 'not_yet_approved' ) ;
#119 = SHAPE_DEFINITION_REPRESENTATION ( #136, #89 ) ;
#120 = ORIENTED_EDGE ( 'NONE', *, *, #2, .T. ) ;
#121 = EDGE_LOOP ( 'NONE', ( #189 ) ) ;
#122 = APPROVAL ( #118, 'UNSPECIFIED' ) ;
#123 = CARTESIAN_POINT ( 'NONE',  ( 1.396592535537253342E-14, 1.124819836996387048E-32, 4.000000000000000000 ) ) ;
#124 = CONICAL_SURFACE ( 'NONE', #59, 1.199999999999996403, 0.7853981633974461696 ) ;
#125 = DIRECTION ( 'NONE',  ( 0.0000000000000000000, 1.000000000000000000, 0.0000000000000000000 ) ) ;
#126 = CARTESIAN_POINT ( 'NONE',  ( 1.326762908760390423E-13, -4.653657836759941941E-15, 38.00000000000000000 ) ) ;
#127 = DIRECTION ( 'NONE',  ( -4.346880784298276734E-31, -1.000000000000000000, -1.244996138440932305E-16 ) ) ;
#128 = LOCAL_TIME ( 15, 31, 33.00000000000000000, #90 ) ;
#129 = EDGE_LOOP ( 'NONE', ( #111 ) ) ;
#130 = DIRECTION ( 'NONE',  ( 4.275831445896958607E-31, 1.000000000000000000, 1.224646799147353207E-16 ) ) ;
#131 = PERSON_AND_ORGANIZATION_ROLE ( 'creator' ) ;
#132 = DIRECTION ( 'NONE',  ( 0.0000000000000000000, 1.000000000000000000, 0.0000000000000000000 ) ) ;
#133 = CC_DESIGN_PERSON_AND_ORGANIZATION_ASSIGNMENT ( #207, #131, ( #197 ) ) ;
#134 = CARTESIAN_POINT ( 'NONE',  ( 1.316288464743861212E-13, -4.616918432785521081E-15, 37.69999999999999574 ) ) ;
#135 = APPROVAL_DATE_TIME ( #29, #21 ) ;
#136 = PRODUCT_DEFINITION_SHAPE ( 'NONE', 'NONE',  #197 ) ;
#137 = DATE_AND_TIME ( #103, #97 ) ;
#138 = AXIS2_PLACEMENT_3D ( 'NONE', #123, #7, #92 ) ;
#139 = APPROVAL_ROLE ( '' ) ;
#140 = DESIGN_CONTEXT ( 'detailed design', #33, 'design' ) ;
#141 = DATE_AND_TIME ( #171, #128 ) ;
#142 = EDGE_CURVE ( 'NONE', #84, #84, #35, .T. ) ;
#143 = DIRECTION ( 'NONE',  ( 3.491481338843133355E-15, -1.224646799147353207E-16, 1.000000000000000000 ) ) ;
#144 = EDGE_LOOP ( 'NONE', ( #211 ) ) ;
#145 = FACE_OUTER_BOUND ( 'NONE', #190, .T. ) ;
#146 = DIRECTION ( 'NONE',  ( -3.491481338843133355E-15, 1.244996138440932305E-16, -1.000000000000000000 ) ) ;
#147 = FACE_OUTER_BOUND ( 'NONE', #214, .T. ) ;
#148 = ADVANCED_FACE ( 'NONE', ( #166 ), #12, .F. ) ;
#149 = CC_DESIGN_APPROVAL ( #21, ( #197 ) ) ;
#150 = COORDINATED_UNIVERSAL_TIME_OFFSET ( 1, 0, .AHEAD. ) ;
#151 = DIRECTION ( 'NONE',  ( -3.491481338843133355E-15, 1.224646799147353207E-16, -1.000000000000000000 ) ) ;
#152 = DIRECTION ( 'NONE',  ( 1.000000000000000000, 0.0000000000000000000, 0.0000000000000000000 ) ) ;
#153 = CARTESIAN_POINT ( 'NONE',  ( 1.396592535537252711E-14, -0.7500000000000017764, 3.999999999999998224 ) ) ;
#154 = PERSON_AND_ORGANIZATION_ROLE ( 'classification_officer' ) ;
#155 = PERSON_AND_ORGANIZATION ( #11, #101 ) ;
#156 = UNCERTAINTY_MEASURE_WITH_UNIT (LENGTH_MEASURE( 1.000000000000000082E-05 ), #181, 'distance_accuracy_value', 'NONE');
#157 = APPLICATION_CONTEXT ( 'configuration controlled 3d designs of mechanical parts and assemblies' ) ;
#158 = EDGE_CURVE ( 'NONE', #10, #10, #91, .T. ) ;
#159 = AXIS2_PLACEMENT_3D ( 'NONE', #46, #200, #163 ) ;
#160 = CARTESIAN_POINT ( 'NONE',  ( 1.396592535537252711E-14, -4.979984553763727249E-16, 3.999999999999998224 ) ) ;
#161 = CARTESIAN_POINT ( 'NONE',  ( 1.396592535537253342E-14, 1.124819836996387048E-32, 4.000000000000000000 ) ) ;
#162 = PRODUCT_DEFINITION_FORMATION_WITH_SPECIFIED_SOURCE ( 'ANY', '', #170, .NOT_KNOWN. ) ;
#163 = DIRECTION ( 'NONE',  ( -4.275831445896958607E-31, -1.000000000000000000, -1.224646799147353207E-16 ) ) ;
#164 = FACE_OUTER_BOUND ( 'NONE', #24, .T. ) ;
#165 = CC_DESIGN_PERSON_AND_ORGANIZATION_ASSIGNMENT ( #17, #55, ( #162 ) ) ;
#166 = FACE_OUTER_BOUND ( 'NONE', #121, .T. ) ;
#167 = AXIS2_PLACEMENT_3D ( 'NONE', #58, #42, #177 ) ;
#168 = DIRECTION ( 'NONE',  ( -3.491481338843133355E-15, 1.224646799147353207E-16, -1.000000000000000000 ) ) ;
#169 = VERTEX_POINT ( 'NONE', #201 ) ;
#170 = PRODUCT ( '56731', '56731', '', ( #67 ) ) ;
#171 = CALENDAR_DATE ( 2021, 15, 11 ) ;
#172 = PERSON_AND_ORGANIZATION_ROLE ( 'creator' ) ;
#173 = CIRCLE ( 'NONE', #14, 0.7500000000000012212 ) ;
#174 = ORIENTED_EDGE ( 'NONE', *, *, #158, .F. ) ;
#175 = ORIENTED_EDGE ( 'NONE', *, *, #2, .F. ) ;
#176 = DIRECTION ( 'NONE',  ( 0.0000000000000000000, -1.000000000000000000, 0.0000000000000000000 ) ) ;
#177 = DIRECTION ( 'NONE',  ( -4.410296412723971439E-31, -1.000000000000000000, -1.244996138440932305E-16 ) ) ;
#178 = DIRECTION ( 'NONE',  ( 3.491481338843133355E-15, -1.244996138440932305E-16, 1.000000000000000000 ) ) ;
#179 = CC_DESIGN_PERSON_AND_ORGANIZATION_ASSIGNMENT ( #19, #154, ( #117 ) ) ;
#180 = FACE_OUTER_BOUND ( 'NONE', #37, .T. ) ;
#181 =( LENGTH_UNIT ( ) NAMED_UNIT ( * ) SI_UNIT ( .MILLI., .METRE. ) );
#182 = DATE_AND_TIME ( #48, #221 ) ;
#183 = DIRECTION ( 'NONE',  ( 4.275831445896958607E-31, 1.000000000000000000, 1.224646799147353207E-16 ) ) ;
#184 =( GEOMETRIC_REPRESENTATION_CONTEXT ( 3 ) GLOBAL_UNCERTAINTY_ASSIGNED_CONTEXT ( ( #156 ) ) GLOBAL_UNIT_ASSIGNED_CONTEXT ( ( #181, #185, #47 ) ) REPRESENTATION_CONTEXT ( 'NONE', 'WORKASPACE' ) );
#185 =( NAMED_UNIT ( * ) PLANE_ANGLE_UNIT ( ) SI_UNIT ( $, .RADIAN. ) );
#186 = ADVANCED_FACE ( 'NONE', ( #113, #216 ), #32, .T. ) ;
#187 = APPROVAL_STATUS ( 'not_yet_approved' ) ;
#188 = DATE_TIME_ROLE ( 'creation_date' ) ;
#189 = ORIENTED_EDGE ( 'NONE', *, *, #71, .F. ) ;
#190 = EDGE_LOOP ( 'NONE', ( #120 ) ) ;
#191 = EDGE_LOOP ( 'NONE', ( #213 ) ) ;
#192 = DIRECTION ( 'NONE',  ( 0.0000000000000000000, 1.000000000000000000, 0.0000000000000000000 ) ) ;
#193 = CC_DESIGN_APPROVAL ( #218, ( #162 ) ) ;
#194 = AXIS2_PLACEMENT_3D ( 'NONE', #85, #168, #183 ) ;
#195 = DIRECTION ( 'NONE',  ( -4.346880784298277610E-31, -1.000000000000000000, -1.244996138440932305E-16 ) ) ;
#196 = CYLINDRICAL_SURFACE ( 'NONE', #44, 0.7500000000000006661 ) ;
#197 = PRODUCT_DEFINITION ( 'UNKNOWN', '', #162, #140 ) ;
#198 = CARTESIAN_POINT ( 'NONE',  ( 1.326762908760390423E-13, -4.653657836759941941E-15, 38.00000000000000000 ) ) ;
#199 = AXIS2_PLACEMENT_3D ( 'NONE', #100, #151, #130 ) ;
#200 = DIRECTION ( 'NONE',  ( 3.491481338843133355E-15, -1.224646799147353207E-16, 1.000000000000000000 ) ) ;
#201 = CARTESIAN_POINT ( 'NONE',  ( 1.326762908760390423E-13, 1.199999999999991962, 38.00000000000000000 ) ) ;
#202 = COORDINATED_UNIVERSAL_TIME_OFFSET ( 1, 0, .AHEAD. ) ;
#203 = AXIS2_PLACEMENT_3D ( 'NONE', #40, #64, #112 ) ;
#204 = PERSON_AND_ORGANIZATION_ROLE ( 'design_owner' ) ;
#205 = CARTESIAN_POINT ( 'NONE',  ( 1.396592535537252711E-14, -0.7500000000000017764, 3.999999999999998224 ) ) ;
#206 = CC_DESIGN_DATE_AND_TIME_ASSIGNMENT ( #182, #188, ( #197 ) ) ;
#207 = PERSON_AND_ORGANIZATION ( #11, #101 ) ;
#208 = PERSON_AND_ORGANIZATION ( #11, #101 ) ;
#209 = PERSON_AND_ORGANIZATION ( #11, #101 ) ;
#210 = CLOSED_SHELL ( 'NONE', ( #186, #95, #148, #63, #45 ) ) ;
#211 = ORIENTED_EDGE ( 'NONE', *, *, #102, .T. ) ;
#212 = DIRECTION ( 'NONE',  ( 0.0000000000000000000, 1.000000000000000000, 0.0000000000000000000 ) ) ;
#213 = ORIENTED_EDGE ( 'NONE', *, *, #36, .F. ) ;
#214 = EDGE_LOOP ( 'NONE', ( #174 ) ) ;
#215 = CARTESIAN_POINT ( 'NONE',  ( 2.577389637849558787E-14, -4.210498897147656248E-16, 7.381937314617155188 ) ) ;
#216 = FACE_OUTER_BOUND ( 'NONE', #93, .T. ) ;
#217 = CARTESIAN_POINT ( 'NONE',  ( -6.520321176447415539E-31, -0.7500000000000000000, -1.867494207661398458E-16 ) ) ;
#218 = APPROVAL ( #187, 'UNSPECIFIED' ) ;
#219 = CARTESIAN_POINT ( 'NONE',  ( 1.316288464743861212E-13, 1.499999999999992228, 37.69999999999999574 ) ) ;
#220 = COORDINATED_UNIVERSAL_TIME_OFFSET ( 1, 0, .AHEAD. ) ;
#221 = LOCAL_TIME ( 15, 31, 33.00000000000000000, #202 ) ;
#222 = CIRCLE ( 'NONE', #5, 0.7500000000000000000 ) ;
#223 = COORDINATED_UNIVERSAL_TIME_OFFSET ( 1, 0, .AHEAD. ) ;
ENDSEC;
END-ISO-10303-21;
