ISO-10303-21;
HEADER;
FILE_DESCRIPTION (( 'STEP AP203' ),
    '1' );
FILE_NAME ('56653.step',
    '2021-11-18T08:13:14',
    ( '' ),
    ( '' ),
    'SwSTEP 2.0',
    'SolidWorks 2019',
    '' );
FILE_SCHEMA (( 'CONFIG_CONTROL_DESIGN' ));
ENDSEC;

DATA;
#1 = EDGE_LOOP ( 'NONE', ( #49 ) ) ;
#2 = MANIFOLD_SOLID_BREP ( 'Corps-Déplacer/Copier1[2]', #222 ) ;
#3 = ADVANCED_FACE ( 'NONE', ( #148, #220 ), #47, .T. ) ;
#4 = DIRECTION ( 'NONE',  ( 3.491481338843133355E-15, -0.0000000000000000000, 1.000000000000000000 ) ) ;
#5 = PLANE ( 'NONE',  #163 ) ;
#6 = EDGE_LOOP ( 'NONE', ( #239 ) ) ;
#7 = AXIS2_PLACEMENT_3D ( 'NONE', #217, #249, #116 ) ;
#8 = APPLICATION_PROTOCOL_DEFINITION ( 'international standard', 'config_control_design', 1994, #165 ) ;
#9 = APPROVAL_PERSON_ORGANIZATION ( #252, #30, #167 ) ;
#10 = ORIENTED_EDGE ( 'NONE', *, *, #112, .F. ) ;
#11 = PERSON_AND_ORGANIZATION_ROLE ( 'design_owner' ) ;
#12 = DIRECTION ( 'NONE',  ( 3.491481338843133355E-15, -0.0000000000000000000, 1.000000000000000000 ) ) ;
#13 = LOCAL_TIME ( 9, 13, 14.00000000000000000, #236 ) ;
#14 = EDGE_CURVE ( 'NONE', #29, #29, #260, .T. ) ;
#15 = CC_DESIGN_PERSON_AND_ORGANIZATION_ASSIGNMENT ( #40, #22, ( #140 ) ) ;
#16 = CIRCLE ( 'NONE', #89, 5.000000000000000000 ) ;
#17 = DIRECTION ( 'NONE',  ( 1.000000000000000000, 0.0000000000000000000, -3.469446951953614189E-15 ) ) ;
#18 = DIRECTION ( 'NONE',  ( 3.491481338843133355E-15, -1.224646799147353207E-16, 1.000000000000000000 ) ) ;
#19 = CIRCLE ( 'NONE', #7, 5.500000000000001776 ) ;
#20 = DIRECTION ( 'NONE',  ( 4.275831445896958607E-31, 1.000000000000000000, 1.224646799147353207E-16 ) ) ;
#21 = COORDINATED_UNIVERSAL_TIME_OFFSET ( 1, 0, .AHEAD. ) ;
#22 = PERSON_AND_ORGANIZATION_ROLE ( 'creator' ) ;
#23 = LOCAL_TIME ( 9, 13, 14.00000000000000000, #246 ) ;
#24 = ORIENTED_EDGE ( 'NONE', *, *, #180, .F. ) ;
#25 = VERTEX_POINT ( 'NONE', #39 ) ;
#26 = COORDINATED_UNIVERSAL_TIME_OFFSET ( 1, 0, .AHEAD. ) ;
#27 = AXIS2_PLACEMENT_3D ( 'NONE', #44, #85, #104 ) ;
#28 = CC_DESIGN_APPROVAL ( #30, ( #140 ) ) ;
#29 = VERTEX_POINT ( 'NONE', #141 ) ;
#30 = APPROVAL ( #119, 'UNSPECIFIED' ) ;
#31 = PLANE ( 'NONE',  #159 ) ;
#32 = TOROIDAL_SURFACE ( 'NONE', #82, 5.000000000000000000, 1.000000000000000000 ) ;
#33 = DIRECTION ( 'NONE',  ( 1.000000000000000000, 0.0000000000000000000, -3.491481338843133355E-15 ) ) ;
#34 =( NAMED_UNIT ( * ) SI_UNIT ( $, .STERADIAN. ) SOLID_ANGLE_UNIT ( ) );
#35 = AXIS2_PLACEMENT_3D ( 'NONE', #120, #113, #157 ) ;
#36 = PLANE ( 'NONE',  #182 ) ;
#37 = APPLICATION_PROTOCOL_DEFINITION ( 'international standard', 'config_control_design', 1994, #83 ) ;
#38 = ADVANCED_FACE ( 'NONE', ( #151 ), #5, .T. ) ;
#39 = CARTESIAN_POINT ( 'NONE',  ( 6.000000000000111022, 0.0000000000000000000, 32.49999999999997158 ) ) ;
#40 = PERSON_AND_ORGANIZATION ( #255, #238 ) ;
#41 = VERTEX_POINT ( 'NONE', #230 ) ;
#42 = CARTESIAN_POINT ( 'NONE',  ( 4.189777606611760026E-14, 5.999999999999998224, 12.00000000000000000 ) ) ;
#43 = DIRECTION ( 'NONE',  ( 3.491481338843133355E-15, -0.0000000000000000000, 1.000000000000000000 ) ) ;
#44 = CARTESIAN_POINT ( 'NONE',  ( 0.0000000000000000000, 0.0000000000000000000, 0.0000000000000000000 ) ) ;
#45 = CARTESIAN_POINT ( 'NONE',  ( 5.500000000000041744, 0.0000000000000000000, 11.99999999999998046 ) ) ;
#46 = APPROVAL_PERSON_ORGANIZATION ( #202, #174, #111 ) ;
#47 = CYLINDRICAL_SURFACE ( 'NONE', #27, 5.999999999999997335 ) ;
#48 = DATE_AND_TIME ( #142, #234 ) ;
#49 = ORIENTED_EDGE ( 'NONE', *, *, #88, .T. ) ;
#50 = EDGE_LOOP ( 'NONE', ( #241 ) ) ;
#51 = AXIS2_PLACEMENT_3D ( 'NONE', #118, #166, #122 ) ;
#52 = EDGE_LOOP ( 'NONE', ( #53 ) ) ;
#53 = ORIENTED_EDGE ( 'NONE', *, *, #100, .F. ) ;
#54 = CARTESIAN_POINT ( 'NONE',  ( 1.117274028429802674E-13, 0.0000000000000000000, 32.00000000000000000 ) ) ;
#55 = CC_DESIGN_APPROVAL ( #174, ( #58 ) ) ;
#56 = PRODUCT_DEFINITION_SHAPE ( 'NONE', 'NONE',  #140 ) ;
#57 = SHAPE_DEFINITION_REPRESENTATION ( #56, #95 ) ;
#58 = SECURITY_CLASSIFICATION ( '', '', #218 ) ;
#59 = PRODUCT ( '56653', '56653', '', ( #61 ) ) ;
#60 = VERTEX_POINT ( 'NONE', #42 ) ;
#61 = MECHANICAL_CONTEXT ( 'NONE', #83, 'mechanical' ) ;
#62 = EDGE_LOOP ( 'NONE', ( #72 ) ) ;
#63 = CALENDAR_DATE ( 2021, 18, 11 ) ;
#64 = AXIS2_PLACEMENT_3D ( 'NONE', #149, #196, #17 ) ;
#65 = CLOSED_SHELL ( 'NONE', ( #3, #106, #211, #231, #155, #71 ) ) ;
#66 = AXIS2_PLACEMENT_3D ( 'NONE', #243, #203, #97 ) ;
#67 = CARTESIAN_POINT ( 'NONE',  ( 5.000000000000000000, 0.0000000000000000000, -1.854160886670117121E-14 ) ) ;
#68 = EDGE_LOOP ( 'NONE', ( #121 ) ) ;
#69 = EDGE_LOOP ( 'NONE', ( #127 ) ) ;
#70 = CC_DESIGN_APPROVAL ( #186, ( #132 ) ) ;
#71 = ADVANCED_FACE ( 'NONE', ( #221 ), #36, .F. ) ;
#72 = ORIENTED_EDGE ( 'NONE', *, *, #198, .F. ) ;
#73 = CC_DESIGN_PERSON_AND_ORGANIZATION_ASSIGNMENT ( #179, #11, ( #59 ) ) ;
#74 = EDGE_LOOP ( 'NONE', ( #145 ) ) ;
#75 = COORDINATED_UNIVERSAL_TIME_OFFSET ( 1, 0, .AHEAD. ) ;
#76 = DIRECTION ( 'NONE',  ( 1.000000000000000000, 0.0000000000000000000, -3.491481338843133355E-15 ) ) ;
#77 = DATE_AND_TIME ( #134, #171 ) ;
#78 = PERSON_AND_ORGANIZATION ( #255, #238 ) ;
#79 = DATE_AND_TIME ( #63, #13 ) ;
#80 = FACE_OUTER_BOUND ( 'NONE', #68, .T. ) ;
#81 = APPROVAL_ROLE ( '' ) ;
#82 = AXIS2_PLACEMENT_3D ( 'NONE', #93, #247, #76 ) ;
#83 = APPLICATION_CONTEXT ( 'configuration controlled 3d designs of mechanical parts and assemblies' ) ;
#84 = DIRECTION ( 'NONE',  ( 1.000000000000000000, 0.0000000000000000000, -3.505587024369797538E-15 ) ) ;
#85 = DIRECTION ( 'NONE',  ( -3.491481338843133355E-15, 1.224646799147353207E-16, -1.000000000000000000 ) ) ;
#86 = CIRCLE ( 'NONE', #64, 5.500000000000000000 ) ;
#87 = PRODUCT_RELATED_PRODUCT_CATEGORY ( 'detail', '', ( #59 ) ) ;
#88 = EDGE_CURVE ( 'NONE', #210, #210, #19, .T. ) ;
#89 = AXIS2_PLACEMENT_3D ( 'NONE', #219, #4, #33 ) ;
#90 = DIRECTION ( 'NONE',  ( 3.491481338843133355E-15, -0.0000000000000000000, 1.000000000000000000 ) ) ;
#91 = EDGE_CURVE ( 'NONE', #41, #41, #143, .T. ) ;
#92 = DATE_TIME_ROLE ( 'classification_date' ) ;
#93 = CARTESIAN_POINT ( 'NONE',  ( 3.491481338843129805E-15, 0.0000000000000000000, 0.9999999999999988898 ) ) ;
#94 = CIRCLE ( 'NONE', #223, 6.000000000000000000 ) ;
#95 = ADVANCED_BREP_SHAPE_REPRESENTATION ( '56653', ( #184, #2, #123 ), #107 ) ;
#96 = DESIGN_CONTEXT ( 'detailed design', #165, 'design' ) ;
#97 = DIRECTION ( 'NONE',  ( 0.0000000000000000000, 1.000000000000000000, 0.0000000000000000000 ) ) ;
#98 = PERSON_AND_ORGANIZATION ( #255, #238 ) ;
#99 = VERTEX_POINT ( 'NONE', #67 ) ;
#100 = EDGE_CURVE ( 'NONE', #60, #60, #206, .T. ) ;
#101 = DIRECTION ( 'NONE',  ( 1.000000000000000000, 0.0000000000000000000, -3.469446951953615767E-15 ) ) ;
#102 = DIRECTION ( 'NONE',  ( -3.491481338843133355E-15, 1.224646799147353207E-16, -1.000000000000000000 ) ) ;
#103 = AXIS2_PLACEMENT_3D ( 'NONE', #162, #102, #172 ) ;
#104 = DIRECTION ( 'NONE',  ( 4.275831445896958607E-31, 1.000000000000000000, 1.224646799147353454E-16 ) ) ;
#105 = CARTESIAN_POINT ( 'NONE',  ( 2.897929511239800306E-13, 5.499999999999991118, 82.99999999999998579 ) ) ;
#106 = ADVANCED_FACE ( 'NONE', ( #160, #225 ), #201, .T. ) ;
#107 =( GEOMETRIC_REPRESENTATION_CONTEXT ( 3 ) GLOBAL_UNCERTAINTY_ASSIGNED_CONTEXT ( ( #244 ) ) GLOBAL_UNIT_ASSIGNED_CONTEXT ( ( #193, #117, #34 ) ) REPRESENTATION_CONTEXT ( 'NONE', 'WORKASPACE' ) );
#108 = PERSON_AND_ORGANIZATION_ROLE ( 'design_supplier' ) ;
#109 = CARTESIAN_POINT ( 'NONE',  ( -1.282749433769087757E-30, 4.499279347985572824E-32, -3.673940397442059868E-16 ) ) ;
#110 = EDGE_LOOP ( 'NONE', ( #214 ) ) ;
#111 = APPROVAL_ROLE ( '' ) ;
#112 = EDGE_CURVE ( 'NONE', #207, #207, #86, .T. ) ;
#113 = DIRECTION ( 'NONE',  ( -3.491481338843133355E-15, 1.224646799147353207E-16, -1.000000000000000000 ) ) ;
#114 = APPROVAL_PERSON_ORGANIZATION ( #98, #186, #81 ) ;
#115 = DATE_AND_TIME ( #154, #168 ) ;
#116 = DIRECTION ( 'NONE',  ( 0.0000000000000000000, 1.000000000000000000, 0.0000000000000000000 ) ) ;
#117 =( NAMED_UNIT ( * ) PLANE_ANGLE_UNIT ( ) SI_UNIT ( $, .RADIAN. ) );
#118 = CARTESIAN_POINT ( 'NONE',  ( -1.282749433769087757E-30, 0.0000000000000000000, -3.673940397442059868E-16 ) ) ;
#119 = APPROVAL_STATUS ( 'not_yet_approved' ) ;
#120 = CARTESIAN_POINT ( 'NONE',  ( 2.880472104545584198E-13, -1.010333609296566392E-14, 82.49999999999998579 ) ) ;
#121 = ORIENTED_EDGE ( 'NONE', *, *, #14, .F. ) ;
#122 = DIRECTION ( 'NONE',  ( 1.000000000000000000, 0.0000000000000000000, -3.491481338843133355E-15 ) ) ;
#123 = AXIS2_PLACEMENT_3D ( 'NONE', #233, #185, #191 ) ;
#124 = CC_DESIGN_DATE_AND_TIME_ASSIGNMENT ( #48, #224, ( #140 ) ) ;
#125 = PERSON_AND_ORGANIZATION_ROLE ( 'creator' ) ;
#126 = EDGE_LOOP ( 'NONE', ( #24 ) ) ;
#127 = ORIENTED_EDGE ( 'NONE', *, *, #135, .T. ) ;
#128 = CC_DESIGN_PERSON_AND_ORGANIZATION_ASSIGNMENT ( #129, #125, ( #132 ) ) ;
#129 = PERSON_AND_ORGANIZATION ( #255, #238 ) ;
#130 = DIRECTION ( 'NONE',  ( 4.275831445896959482E-31, 1.000000000000000000, 1.224646799147353207E-16 ) ) ;
#131 = ADVANCED_FACE ( 'NONE', ( #170, #262 ), #32, .T. ) ;
#132 = PRODUCT_DEFINITION_FORMATION_WITH_SPECIFIED_SOURCE ( 'ANY', '', #59, .NOT_KNOWN. ) ;
#133 = DIRECTION ( 'NONE',  ( -3.491481338843133355E-15, 1.224646799147353207E-16, -1.000000000000000000 ) ) ;
#134 = CALENDAR_DATE ( 2021, 18, 11 ) ;
#135 = EDGE_CURVE ( 'NONE', #25, #25, #152, .T. ) ;
#136 = DIRECTION ( 'NONE',  ( -3.491481338843133355E-15, 1.224646799147353207E-16, -1.000000000000000000 ) ) ;
#137 = CONICAL_SURFACE ( 'NONE', #144, 6.999999999999995559, 0.7853981633974511656 ) ;
#138 = EDGE_LOOP ( 'NONE', ( #227 ) ) ;
#139 = EDGE_LOOP ( 'NONE', ( #197 ) ) ;
#140 = PRODUCT_DEFINITION ( 'UNKNOWN', '', #132, #96 ) ;
#141 = CARTESIAN_POINT ( 'NONE',  ( 5.500000000000111910, 0.0000000000000000000, 31.99999999999997868 ) ) ;
#142 = CALENDAR_DATE ( 2021, 18, 11 ) ;
#143 = CIRCLE ( 'NONE', #35, 5.999999999999994671 ) ;
#144 = AXIS2_PLACEMENT_3D ( 'NONE', #235, #190, #187 ) ;
#145 = ORIENTED_EDGE ( 'NONE', *, *, #112, .T. ) ;
#146 = DIRECTION ( 'NONE',  ( 4.275831445896958607E-31, 1.000000000000000000, 1.224646799147353207E-16 ) ) ;
#147 = AXIS2_PLACEMENT_3D ( 'NONE', #54, #90, #215 ) ;
#148 = FACE_OUTER_BOUND ( 'NONE', #263, .T. ) ;
#149 = CARTESIAN_POINT ( 'NONE',  ( 4.189777606611760026E-14, 0.0000000000000000000, 12.00000000000000000 ) ) ;
#150 = CALENDAR_DATE ( 2021, 18, 11 ) ;
#151 = FACE_OUTER_BOUND ( 'NONE', #62, .T. ) ;
#152 = CIRCLE ( 'NONE', #195, 5.999999999999997335 ) ;
#153 = ORIENTED_EDGE ( 'NONE', *, *, #91, .T. ) ;
#154 = CALENDAR_DATE ( 2021, 18, 11 ) ;
#155 = ADVANCED_FACE ( 'NONE', ( #213, #229 ), #137, .T. ) ;
#156 = APPROVAL_DATE_TIME ( #77, #174 ) ;
#157 = DIRECTION ( 'NONE',  ( 0.0000000000000000000, 1.000000000000000000, 0.0000000000000000000 ) ) ;
#158 = CYLINDRICAL_SURFACE ( 'NONE', #51, 5.500000000000000000 ) ;
#159 = AXIS2_PLACEMENT_3D ( 'NONE', #199, #136, #20 ) ;
#160 = FACE_BOUND ( 'NONE', #1, .T. ) ;
#161 = PLANE ( 'NONE',  #188 ) ;
#162 = CARTESIAN_POINT ( 'NONE',  ( 2.880472104545584198E-13, -1.010333609296566392E-14, 82.49999999999998579 ) ) ;
#163 = AXIS2_PLACEMENT_3D ( 'NONE', #109, #133, #146 ) ;
#164 = FACE_OUTER_BOUND ( 'NONE', #50, .T. ) ;
#165 = APPLICATION_CONTEXT ( 'configuration controlled 3d designs of mechanical parts and assemblies' ) ;
#166 = DIRECTION ( 'NONE',  ( 3.491481338843133355E-15, -0.0000000000000000000, 1.000000000000000000 ) ) ;
#167 = APPROVAL_ROLE ( '' ) ;
#168 = LOCAL_TIME ( 9, 13, 14.00000000000000000, #75 ) ;
#169 = DIRECTION ( 'NONE',  ( -3.491481338843133355E-15, 1.224646799147353207E-16, -1.000000000000000000 ) ) ;
#170 = FACE_OUTER_BOUND ( 'NONE', #139, .T. ) ;
#171 = LOCAL_TIME ( 9, 13, 14.00000000000000000, #21 ) ;
#172 = DIRECTION ( 'NONE',  ( 0.0000000000000000000, 1.000000000000000000, 0.0000000000000000000 ) ) ;
#173 = APPROVAL_DATE_TIME ( #240, #186 ) ;
#174 = APPROVAL ( #178, 'UNSPECIFIED' ) ;
#175 = CARTESIAN_POINT ( 'NONE',  ( 4.189777606611760026E-14, 4.499279347985570634E-32, 12.00000000000000000 ) ) ;
#176 = FACE_OUTER_BOUND ( 'NONE', #74, .T. ) ;
#177 = AXIS2_PLACEMENT_3D ( 'NONE', #192, #169, #130 ) ;
#178 = APPROVAL_STATUS ( 'not_yet_approved' ) ;
#179 = PERSON_AND_ORGANIZATION ( #255, #238 ) ;
#180 = EDGE_CURVE ( 'NONE', #259, #259, #94, .T. ) ;
#181 = APPROVAL_STATUS ( 'not_yet_approved' ) ;
#182 = AXIS2_PLACEMENT_3D ( 'NONE', #175, #18, #237 ) ;
#183 = ADVANCED_FACE ( 'NONE', ( #164, #228 ), #257, .T. ) ;
#184 = MANIFOLD_SOLID_BREP ( 'Corps-Déplacer/Copier1[1]', #65 ) ;
#185 = DIRECTION ( 'NONE',  ( 0.0000000000000000000, 0.0000000000000000000, 1.000000000000000000 ) ) ;
#186 = APPROVAL ( #181, 'UNSPECIFIED' ) ;
#187 = DIRECTION ( 'NONE',  ( 1.000000000000000000, 0.0000000000000000000, -3.965082230804132981E-15 ) ) ;
#188 = AXIS2_PLACEMENT_3D ( 'NONE', #258, #253, #256 ) ;
#189 = CC_DESIGN_DATE_AND_TIME_ASSIGNMENT ( #115, #92, ( #58 ) ) ;
#190 = DIRECTION ( 'NONE',  ( 3.491481338843133355E-15, -0.0000000000000000000, 1.000000000000000000 ) ) ;
#191 = DIRECTION ( 'NONE',  ( 1.000000000000000000, 0.0000000000000000000, 0.0000000000000000000 ) ) ;
#192 = CARTESIAN_POINT ( 'NONE',  ( 0.0000000000000000000, 0.0000000000000000000, 0.0000000000000000000 ) ) ;
#193 =( LENGTH_UNIT ( ) NAMED_UNIT ( * ) SI_UNIT ( .MILLI., .METRE. ) );
#194 = PERSON_AND_ORGANIZATION ( #255, #238 ) ;
#195 = AXIS2_PLACEMENT_3D ( 'NONE', #200, #43, #101 ) ;
#196 = DIRECTION ( 'NONE',  ( 3.491481338843133355E-15, -0.0000000000000000000, 1.000000000000000000 ) ) ;
#197 = ORIENTED_EDGE ( 'NONE', *, *, #198, .T. ) ;
#198 = EDGE_CURVE ( 'NONE', #99, #99, #16, .T. ) ;
#199 = CARTESIAN_POINT ( 'NONE',  ( 2.897929511239800306E-13, 1.740782235831814945E-30, 82.99999999999998579 ) ) ;
#200 = CARTESIAN_POINT ( 'NONE',  ( 1.134731435124018277E-13, 0.0000000000000000000, 32.49999999999999289 ) ) ;
#201 = CONICAL_SURFACE ( 'NONE', #103, 5.999999999999994671, 0.7853981633974415066 ) ;
#202 = PERSON_AND_ORGANIZATION ( #255, #238 ) ;
#203 = DIRECTION ( 'NONE',  ( -3.491481338843133355E-15, 1.224646799147353207E-16, -1.000000000000000000 ) ) ;
#204 = CARTESIAN_POINT ( 'NONE',  ( 6.000000000000003553, 0.0000000000000000000, 0.9999999999999779066 ) ) ;
#205 = ORIENTED_EDGE ( 'NONE', *, *, #88, .F. ) ;
#206 = CIRCLE ( 'NONE', #66, 6.000000000000000000 ) ;
#207 = VERTEX_POINT ( 'NONE', #45 ) ;
#208 = EDGE_LOOP ( 'NONE', ( #205 ) ) ;
#209 = CC_DESIGN_SECURITY_CLASSIFICATION ( #58, ( #132 ) ) ;
#210 = VERTEX_POINT ( 'NONE', #105 ) ;
#211 = ADVANCED_FACE ( 'NONE', ( #212 ), #31, .F. ) ;
#212 = FACE_OUTER_BOUND ( 'NONE', #208, .T. ) ;
#213 = FACE_OUTER_BOUND ( 'NONE', #248, .T. ) ;
#214 = ORIENTED_EDGE ( 'NONE', *, *, #91, .F. ) ;
#215 = DIRECTION ( 'NONE',  ( 1.000000000000000000, 0.0000000000000000000, -3.784851220313033947E-15 ) ) ;
#216 = EDGE_LOOP ( 'NONE', ( #10 ) ) ;
#217 = CARTESIAN_POINT ( 'NONE',  ( 2.897929511239800306E-13, -1.016456843292302992E-14, 82.99999999999998579 ) ) ;
#218 = SECURITY_CLASSIFICATION_LEVEL ( 'unclassified' ) ;
#219 = CARTESIAN_POINT ( 'NONE',  ( -3.785471652766322976E-30, 0.0000000000000000000, -1.084202172485504434E-15 ) ) ;
#220 = FACE_OUTER_BOUND ( 'NONE', #69, .T. ) ;
#221 = FACE_OUTER_BOUND ( 'NONE', #216, .T. ) ;
#222 = CLOSED_SHELL ( 'NONE', ( #183, #251, #131, #38 ) ) ;
#223 = AXIS2_PLACEMENT_3D ( 'NONE', #232, #12, #84 ) ;
#224 = DATE_TIME_ROLE ( 'creation_date' ) ;
#225 = FACE_OUTER_BOUND ( 'NONE', #110, .T. ) ;
#226 = APPROVAL_DATE_TIME ( #79, #30 ) ;
#227 = ORIENTED_EDGE ( 'NONE', *, *, #100, .T. ) ;
#228 = FACE_OUTER_BOUND ( 'NONE', #138, .T. ) ;
#229 = FACE_BOUND ( 'NONE', #6, .T. ) ;
#230 = CARTESIAN_POINT ( 'NONE',  ( 2.880472104545584198E-13, 5.999999999999984901, 82.49999999999998579 ) ) ;
#231 = ADVANCED_FACE ( 'NONE', ( #176, #80 ), #158, .T. ) ;
#232 = CARTESIAN_POINT ( 'NONE',  ( 3.491481338843129805E-15, 0.0000000000000000000, 0.9999999999999988898 ) ) ;
#233 = CARTESIAN_POINT ( 'NONE',  ( 0.0000000000000000000, 0.0000000000000000000, 0.0000000000000000000 ) ) ;
#234 = LOCAL_TIME ( 9, 13, 14.00000000000000000, #26 ) ;
#235 = CARTESIAN_POINT ( 'NONE',  ( 1.169646248512449232E-13, 0.0000000000000000000, 33.49999999999998579 ) ) ;
#236 = COORDINATED_UNIVERSAL_TIME_OFFSET ( 1, 0, .AHEAD. ) ;
#237 = DIRECTION ( 'NONE',  ( -4.275831445896958607E-31, -1.000000000000000000, -1.224646799147353207E-16 ) ) ;
#238 = ORGANIZATION ( 'UNSPECIFIED', 'UNSPECIFIED', '' ) ;
#239 = ORIENTED_EDGE ( 'NONE', *, *, #14, .T. ) ;
#240 = DATE_AND_TIME ( #150, #23 ) ;
#241 = ORIENTED_EDGE ( 'NONE', *, *, #180, .T. ) ;
#242 = PERSON_AND_ORGANIZATION_ROLE ( 'classification_officer' ) ;
#243 = CARTESIAN_POINT ( 'NONE',  ( 4.189777606611760026E-14, -1.469576158976823947E-15, 12.00000000000000000 ) ) ;
#244 = UNCERTAINTY_MEASURE_WITH_UNIT (LENGTH_MEASURE( 1.000000000000000082E-05 ), #193, 'distance_accuracy_value', 'NONE');
#245 = CC_DESIGN_PERSON_AND_ORGANIZATION_ASSIGNMENT ( #194, #108, ( #132 ) ) ;
#246 = COORDINATED_UNIVERSAL_TIME_OFFSET ( 1, 0, .AHEAD. ) ;
#247 = DIRECTION ( 'NONE',  ( 3.491481338843133355E-15, -0.0000000000000000000, 1.000000000000000000 ) ) ;
#248 = EDGE_LOOP ( 'NONE', ( #261 ) ) ;
#249 = DIRECTION ( 'NONE',  ( -3.491481338843133355E-15, 1.224646799147353207E-16, -1.000000000000000000 ) ) ;
#250 = FACE_OUTER_BOUND ( 'NONE', #52, .T. ) ;
#251 = ADVANCED_FACE ( 'NONE', ( #250 ), #161, .T. ) ;
#252 = PERSON_AND_ORGANIZATION ( #255, #238 ) ;
#253 = DIRECTION ( 'NONE',  ( 3.491481338843133355E-15, -1.224646799147353207E-16, 1.000000000000000000 ) ) ;
#254 = CC_DESIGN_PERSON_AND_ORGANIZATION_ASSIGNMENT ( #78, #242, ( #58 ) ) ;
#255 = PERSON ( 'UNSPECIFIED', 'UNSPECIFIED', 'UNSPECIFIED', ('UNSPECIFIED'), ('UNSPECIFIED'), ('UNSPECIFIED') ) ;
#256 = DIRECTION ( 'NONE',  ( -4.275831445896958607E-31, -1.000000000000000000, -1.224646799147353207E-16 ) ) ;
#257 = CYLINDRICAL_SURFACE ( 'NONE', #177, 6.000000000000000000 ) ;
#258 = CARTESIAN_POINT ( 'NONE',  ( 4.189777606611760026E-14, 4.499279347985570634E-32, 12.00000000000000000 ) ) ;
#259 = VERTEX_POINT ( 'NONE', #204 ) ;
#260 = CIRCLE ( 'NONE', #147, 5.500000000000000000 ) ;
#261 = ORIENTED_EDGE ( 'NONE', *, *, #135, .F. ) ;
#262 = FACE_OUTER_BOUND ( 'NONE', #126, .T. ) ;
#263 = EDGE_LOOP ( 'NONE', ( #153 ) ) ;
ENDSEC;
END-ISO-10303-21;
