ISO-10303-21;
HEADER;
FILE_DESCRIPTION (( 'STEP AP203' ),
    '1' );
FILE_NAME ('56651.step',
    '2021-11-18T08:13:13',
    ( '' ),
    ( '' ),
    'SwSTEP 2.0',
    'SolidWorks 2019',
    '' );
FILE_SCHEMA (( 'CONFIG_CONTROL_DESIGN' ));
ENDSEC;

DATA;
#1 = AXIS2_PLACEMENT_3D ( 'NONE', #121, #72, #70 ) ;
#2 = PERSON_AND_ORGANIZATION_ROLE ( 'classification_officer' ) ;
#3 = PERSON_AND_ORGANIZATION_ROLE ( 'design_supplier' ) ;
#4 = CARTESIAN_POINT ( 'NONE',  ( 4.189777606611760026E-14, -1.469576158976823947E-15, 12.00000000000000000 ) ) ;
#5 = CIRCLE ( 'NONE', #197, 3.000000000000000444 ) ;
#6 = SECURITY_CLASSIFICATION_LEVEL ( 'unclassified' ) ;
#7 = ORIENTED_EDGE ( 'NONE', *, *, #110, .T. ) ;
#8 = PLANE ( 'NONE',  #244 ) ;
#9 = DIRECTION ( 'NONE',  ( 3.491481338843133355E-15, -1.224646799147353207E-16, 1.000000000000000000 ) ) ;
#10 = EDGE_LOOP ( 'NONE', ( #184 ) ) ;
#11 = DIRECTION ( 'NONE',  ( -3.491481338843133355E-15, 1.224646799147353207E-16, -1.000000000000000000 ) ) ;
#12 = CONICAL_SURFACE ( 'NONE', #168, 5.999999999999998224, 0.7853981633974523868 ) ;
#13 = ORIENTED_EDGE ( 'NONE', *, *, #110, .F. ) ;
#14 = PLANE ( 'NONE',  #202 ) ;
#15 = APPROVAL_DATE_TIME ( #193, #89 ) ;
#16 = CIRCLE ( 'NONE', #206, 5.000000000000000000 ) ;
#17 = ADVANCED_FACE ( 'NONE', ( #71, #128 ), #12, .T. ) ;
#18 = CC_DESIGN_DATE_AND_TIME_ASSIGNMENT ( #82, #84, ( #228 ) ) ;
#19 =( NAMED_UNIT ( * ) SI_UNIT ( $, .STERADIAN. ) SOLID_ANGLE_UNIT ( ) );
#20 = VERTEX_POINT ( 'NONE', #97 ) ;
#21 = CALENDAR_DATE ( 2021, 18, 11 ) ;
#22 = CONICAL_SURFACE ( 'NONE', #118, 5.000000000000000000, 0.7853981633974552734 ) ;
#23 = ADVANCED_FACE ( 'NONE', ( #39, #57 ), #219, .T. ) ;
#24 = PERSON_AND_ORGANIZATION_ROLE ( 'creator' ) ;
#25 = DIRECTION ( 'NONE',  ( -3.491481338843133355E-15, 1.224646799147353207E-16, -1.000000000000000000 ) ) ;
#26 = CLOSED_SHELL ( 'NONE', ( #141, #223, #204, #225, #17, #213 ) ) ;
#27 = LOCAL_TIME ( 9, 13, 13.00000000000000000, #200 ) ;
#28 = PERSON_AND_ORGANIZATION ( #227, #182 ) ;
#29 = ADVANCED_BREP_SHAPE_REPRESENTATION ( '56651', ( #147, #67, #41 ), #123 ) ;
#30 = DIRECTION ( 'NONE',  ( 1.000000000000000000, 0.0000000000000000000, -3.750753461571474649E-15 ) ) ;
#31 = EDGE_LOOP ( 'NONE', ( #7 ) ) ;
#32 = DIRECTION ( 'NONE',  ( 4.275831445896958607E-31, 1.000000000000000000, 1.224646799147353207E-16 ) ) ;
#33 = ORIENTED_EDGE ( 'NONE', *, *, #101, .F. ) ;
#34 = FACE_OUTER_BOUND ( 'NONE', #235, .T. ) ;
#35 = DIRECTION ( 'NONE',  ( 3.491481338843133355E-15, -0.0000000000000000000, 1.000000000000000000 ) ) ;
#36 = AXIS2_PLACEMENT_3D ( 'NONE', #4, #25, #120 ) ;
#37 = ORIENTED_EDGE ( 'NONE', *, *, #101, .T. ) ;
#38 = COORDINATED_UNIVERSAL_TIME_OFFSET ( 1, 0, .AHEAD. ) ;
#39 = FACE_OUTER_BOUND ( 'NONE', #68, .T. ) ;
#40 = APPROVAL_STATUS ( 'not_yet_approved' ) ;
#41 = AXIS2_PLACEMENT_3D ( 'NONE', #111, #44, #58 ) ;
#42 = PRODUCT_DEFINITION ( 'UNKNOWN', '', #221, #151 ) ;
#43 = ADVANCED_FACE ( 'NONE', ( #215, #263 ), #247, .T. ) ;
#44 = DIRECTION ( 'NONE',  ( 0.0000000000000000000, 0.0000000000000000000, 1.000000000000000000 ) ) ;
#45 = CARTESIAN_POINT ( 'NONE',  ( 6.982962677686261977E-15, 0.0000000000000000000, 1.999999999999998668 ) ) ;
#46 = EDGE_CURVE ( 'NONE', #94, #94, #174, .T. ) ;
#47 = CALENDAR_DATE ( 2021, 18, 11 ) ;
#48 = CC_DESIGN_PERSON_AND_ORGANIZATION_ASSIGNMENT ( #138, #24, ( #221 ) ) ;
#49 = CIRCLE ( 'NONE', #1, 4.500000000000006217 ) ;
#50 = PLANE ( 'NONE',  #178 ) ;
#51 = DIRECTION ( 'NONE',  ( 3.491481338843133355E-15, -0.0000000000000000000, 1.000000000000000000 ) ) ;
#52 = ORIENTED_EDGE ( 'NONE', *, *, #54, .F. ) ;
#53 = CYLINDRICAL_SURFACE ( 'NONE', #251, 5.000000000000000000 ) ;
#54 = EDGE_CURVE ( 'NONE', #239, #239, #164, .T. ) ;
#55 = EDGE_LOOP ( 'NONE', ( #145 ) ) ;
#56 = VERTEX_POINT ( 'NONE', #150 ) ;
#57 = FACE_OUTER_BOUND ( 'NONE', #106, .T. ) ;
#58 = DIRECTION ( 'NONE',  ( 1.000000000000000000, 0.0000000000000000000, 0.0000000000000000000 ) ) ;
#59 = CARTESIAN_POINT ( 'NONE',  ( 2.618611004132350143E-13, 4.499999999999997335, 75.00000000000000000 ) ) ;
#60 =( NAMED_UNIT ( * ) PLANE_ANGLE_UNIT ( ) SI_UNIT ( $, .RADIAN. ) );
#61 = AXIS2_PLACEMENT_3D ( 'NONE', #180, #69, #163 ) ;
#62 = PRODUCT_DEFINITION_SHAPE ( 'NONE', 'NONE',  #42 ) ;
#63 = DATE_AND_TIME ( #157, #250 ) ;
#64 = DIRECTION ( 'NONE',  ( 1.000000000000000000, 0.0000000000000000000, -3.491481338843133355E-15 ) ) ;
#65 = APPROVAL_ROLE ( '' ) ;
#66 = CC_DESIGN_PERSON_AND_ORGANIZATION_ASSIGNMENT ( #83, #3, ( #221 ) ) ;
#67 = MANIFOLD_SOLID_BREP ( 'Corps-Déplacer/Copier1[2]', #153 ) ;
#68 = EDGE_LOOP ( 'NONE', ( #37 ) ) ;
#69 = DIRECTION ( 'NONE',  ( 3.491481338843133355E-15, -0.0000000000000000000, 1.000000000000000000 ) ) ;
#70 = DIRECTION ( 'NONE',  ( 0.0000000000000000000, 1.000000000000000000, 0.0000000000000000000 ) ) ;
#71 = FACE_OUTER_BOUND ( 'NONE', #211, .T. ) ;
#72 = DIRECTION ( 'NONE',  ( -3.491481338843133355E-15, 1.224646799147353207E-16, -1.000000000000000000 ) ) ;
#73 = DIRECTION ( 'NONE',  ( 3.491481338843133355E-15, -0.0000000000000000000, 1.000000000000000000 ) ) ;
#74 = ORIENTED_EDGE ( 'NONE', *, *, #54, .T. ) ;
#75 = DIRECTION ( 'NONE',  ( 1.000000000000000000, 0.0000000000000000000, -3.491481338843133355E-15 ) ) ;
#76 = APPROVAL_PERSON_ORGANIZATION ( #77, #89, #216 ) ;
#77 = PERSON_AND_ORGANIZATION ( #227, #182 ) ;
#78 = CARTESIAN_POINT ( 'NONE',  ( 5.000000000000105693, 0.0000000000000000000, 30.37499999999997868 ) ) ;
#79 = PERSON_AND_ORGANIZATION ( #227, #182 ) ;
#80 = AXIS2_PLACEMENT_3D ( 'NONE', #45, #175, #64 ) ;
#81 = DIRECTION ( 'NONE',  ( 4.275831445896958607E-31, 1.000000000000000000, 1.224646799147353207E-16 ) ) ;
#82 = DATE_AND_TIME ( #47, #96 ) ;
#83 = PERSON_AND_ORGANIZATION ( #227, #182 ) ;
#84 = DATE_TIME_ROLE ( 'classification_date' ) ;
#85 = EDGE_CURVE ( 'NONE', #196, #196, #16, .T. ) ;
#86 = AXIS2_PLACEMENT_3D ( 'NONE', #136, #112, #81 ) ;
#87 = CARTESIAN_POINT ( 'NONE',  ( 4.189777606611760026E-14, 0.0000000000000000000, 12.00000000000000000 ) ) ;
#88 = CARTESIAN_POINT ( 'NONE',  ( -1.068957861474239564E-30, 3.749399456654644020E-32, -3.061616997868383141E-16 ) ) ;
#89 = APPROVAL ( #40, 'UNSPECIFIED' ) ;
#90 = CARTESIAN_POINT ( 'NONE',  ( 1.060537456673601583E-13, 0.0000000000000000000, 30.37499999999999645 ) ) ;
#91 = ORIENTED_EDGE ( 'NONE', *, *, #46, .F. ) ;
#92 = CARTESIAN_POINT ( 'NONE',  ( 2.601153597438134539E-13, 4.999999999999990230, 74.50000000000001421 ) ) ;
#93 = DIRECTION ( 'NONE',  ( 0.0000000000000000000, 1.000000000000000000, 0.0000000000000000000 ) ) ;
#94 = VERTEX_POINT ( 'NONE', #243 ) ;
#95 = CIRCLE ( 'NONE', #61, 4.999999999999999112 ) ;
#96 = LOCAL_TIME ( 9, 13, 13.00000000000000000, #220 ) ;
#97 = CARTESIAN_POINT ( 'NONE',  ( 3.000000000000000444, 0.0000000000000000000, -1.134180575451780519E-14 ) ) ;
#98 = PRODUCT_RELATED_PRODUCT_CATEGORY ( 'detail', '', ( #161 ) ) ;
#99 = APPROVAL_PERSON_ORGANIZATION ( #117, #233, #65 ) ;
#100 = APPROVAL_DATE_TIME ( #63, #233 ) ;
#101 = EDGE_CURVE ( 'NONE', #242, #242, #95, .T. ) ;
#102 = DIRECTION ( 'NONE',  ( -3.491481338843133355E-15, 1.224646799147353207E-16, -1.000000000000000000 ) ) ;
#103 = FACE_OUTER_BOUND ( 'NONE', #181, .T. ) ;
#104 = ORIENTED_EDGE ( 'NONE', *, *, #156, .F. ) ;
#105 = CC_DESIGN_PERSON_AND_ORGANIZATION_ASSIGNMENT ( #195, #152, ( #42 ) ) ;
#106 = EDGE_LOOP ( 'NONE', ( #209 ) ) ;
#107 = CARTESIAN_POINT ( 'NONE',  ( 2.601153597438134539E-13, -9.123618653647782737E-15, 74.50000000000001421 ) ) ;
#108 = CC_DESIGN_SECURITY_CLASSIFICATION ( #228, ( #221 ) ) ;
#109 = EDGE_LOOP ( 'NONE', ( #91 ) ) ;
#110 = EDGE_CURVE ( 'NONE', #56, #56, #160, .T. ) ;
#111 = CARTESIAN_POINT ( 'NONE',  ( 0.0000000000000000000, 0.0000000000000000000, 0.0000000000000000000 ) ) ;
#112 = DIRECTION ( 'NONE',  ( -3.491481338843133355E-15, 1.224646799147353207E-16, -1.000000000000000000 ) ) ;
#113 = APPLICATION_CONTEXT ( 'configuration controlled 3d designs of mechanical parts and assemblies' ) ;
#114 = PERSON_AND_ORGANIZATION_ROLE ( 'design_owner' ) ;
#115 = AXIS2_PLACEMENT_3D ( 'NONE', #134, #217, #245 ) ;
#116 = APPROVAL_DATE_TIME ( #226, #119 ) ;
#117 = PERSON_AND_ORGANIZATION ( #227, #182 ) ;
#118 = AXIS2_PLACEMENT_3D ( 'NONE', #107, #132, #93 ) ;
#119 = APPROVAL ( #222, 'UNSPECIFIED' ) ;
#120 = DIRECTION ( 'NONE',  ( 0.0000000000000000000, 1.000000000000000000, 0.0000000000000000000 ) ) ;
#121 = CARTESIAN_POINT ( 'NONE',  ( 2.618611004132350143E-13, -9.184850993605148733E-15, 75.00000000000000000 ) ) ;
#122 = CARTESIAN_POINT ( 'NONE',  ( 0.0000000000000000000, 0.0000000000000000000, 0.0000000000000000000 ) ) ;
#123 =( GEOMETRIC_REPRESENTATION_CONTEXT ( 3 ) GLOBAL_UNCERTAINTY_ASSIGNED_CONTEXT ( ( #133 ) ) GLOBAL_UNIT_ASSIGNED_CONTEXT ( ( #241, #60, #19 ) ) REPRESENTATION_CONTEXT ( 'NONE', 'WORKASPACE' ) );
#124 = CC_DESIGN_APPROVAL ( #233, ( #228 ) ) ;
#125 = CARTESIAN_POINT ( 'NONE',  ( 4.189777606611760026E-14, 3.749399456654641830E-32, 12.00000000000000000 ) ) ;
#126 = CC_DESIGN_PERSON_AND_ORGANIZATION_ASSIGNMENT ( #79, #114, ( #161 ) ) ;
#127 = CARTESIAN_POINT ( 'NONE',  ( 2.618611004132350143E-13, 3.374459510989170860E-32, 75.00000000000000000 ) ) ;
#128 = FACE_BOUND ( 'NONE', #31, .T. ) ;
#129 = PLANE ( 'NONE',  #248 ) ;
#130 = ORIENTED_EDGE ( 'NONE', *, *, #158, .F. ) ;
#131 = VERTEX_POINT ( 'NONE', #92 ) ;
#132 = DIRECTION ( 'NONE',  ( -3.491481338843133355E-15, 1.224646799147353207E-16, -1.000000000000000000 ) ) ;
#133 = UNCERTAINTY_MEASURE_WITH_UNIT (LENGTH_MEASURE( 1.000000000000000082E-05 ), #241, 'distance_accuracy_value', 'NONE');
#134 = CARTESIAN_POINT ( 'NONE',  ( -1.282749433769087757E-30, 0.0000000000000000000, -3.673940397442059868E-16 ) ) ;
#135 = CC_DESIGN_APPROVAL ( #89, ( #42 ) ) ;
#136 = CARTESIAN_POINT ( 'NONE',  ( 0.0000000000000000000, 0.0000000000000000000, 0.0000000000000000000 ) ) ;
#137 = APPLICATION_PROTOCOL_DEFINITION ( 'international standard', 'config_control_design', 1994, #113 ) ;
#138 = PERSON_AND_ORGANIZATION ( #227, #182 ) ;
#139 = AXIS2_PLACEMENT_3D ( 'NONE', #87, #167, #142 ) ;
#140 = DIRECTION ( 'NONE',  ( -3.491481338843133355E-15, 1.224646799147353207E-16, -1.000000000000000000 ) ) ;
#141 = ADVANCED_FACE ( 'NONE', ( #212, #257 ), #53, .T. ) ;
#142 = DIRECTION ( 'NONE',  ( 1.000000000000000000, 0.0000000000000000000, -3.375678115414327500E-15 ) ) ;
#143 = ORIENTED_EDGE ( 'NONE', *, *, #156, .T. ) ;
#144 = FACE_OUTER_BOUND ( 'NONE', #109, .T. ) ;
#145 = ORIENTED_EDGE ( 'NONE', *, *, #85, .T. ) ;
#146 = FACE_OUTER_BOUND ( 'NONE', #186, .T. ) ;
#147 = MANIFOLD_SOLID_BREP ( 'Corps-Déplacer/Copier1[1]', #26 ) ;
#148 = CARTESIAN_POINT ( 'NONE',  ( -3.028377322213058170E-30, 0.0000000000000000000, -8.673617379884035472E-16 ) ) ;
#149 = ORIENTED_EDGE ( 'NONE', *, *, #85, .F. ) ;
#150 = CARTESIAN_POINT ( 'NONE',  ( 4.625000000000104805, 0.0000000000000000000, 29.99999999999998224 ) ) ;
#151 = DESIGN_CONTEXT ( 'detailed design', #113, 'design' ) ;
#152 = PERSON_AND_ORGANIZATION_ROLE ( 'creator' ) ;
#153 = CLOSED_SHELL ( 'NONE', ( #23, #177, #43, #192 ) ) ;
#154 = COORDINATED_UNIVERSAL_TIME_OFFSET ( 1, 0, .AHEAD. ) ;
#155 = DIRECTION ( 'NONE',  ( 1.000000000000000000, 0.0000000000000000000, -3.469446951953615372E-15 ) ) ;
#156 = EDGE_CURVE ( 'NONE', #131, #131, #194, .T. ) ;
#157 = CALENDAR_DATE ( 2021, 18, 11 ) ;
#158 = EDGE_CURVE ( 'NONE', #214, #214, #49, .T. ) ;
#159 = DATE_AND_TIME ( #21, #27 ) ;
#160 = CIRCLE ( 'NONE', #261, 4.625000000000000000 ) ;
#161 = PRODUCT ( '56651', '56651', '', ( #172 ) ) ;
#162 = PERSON_AND_ORGANIZATION ( #227, #182 ) ;
#163 = DIRECTION ( 'NONE',  ( 1.000000000000000000, 0.0000000000000000000, -3.469446951953614978E-15 ) ) ;
#164 = CIRCLE ( 'NONE', #139, 4.625000000000000000 ) ;
#165 = CARTESIAN_POINT ( 'NONE',  ( 2.601153597438134539E-13, -9.123618653647782737E-15, 74.50000000000001421 ) ) ;
#166 = ORIENTED_EDGE ( 'NONE', *, *, #158, .T. ) ;
#167 = DIRECTION ( 'NONE',  ( 3.491481338843133355E-15, -0.0000000000000000000, 1.000000000000000000 ) ) ;
#168 = AXIS2_PLACEMENT_3D ( 'NONE', #237, #35, #155 ) ;
#169 = LOCAL_TIME ( 9, 13, 13.00000000000000000, #198 ) ;
#170 = CC_DESIGN_DATE_AND_TIME_ASSIGNMENT ( #159, #176, ( #42 ) ) ;
#171 = CARTESIAN_POINT ( 'NONE',  ( 5.000000000000006217, 0.0000000000000000000, 1.999999999999981348 ) ) ;
#172 = MECHANICAL_CONTEXT ( 'NONE', #179, 'mechanical' ) ;
#173 = FACE_OUTER_BOUND ( 'NONE', #240, .T. ) ;
#174 = CIRCLE ( 'NONE', #36, 5.000000000000000000 ) ;
#175 = DIRECTION ( 'NONE',  ( 3.491481338843133355E-15, -0.0000000000000000000, 1.000000000000000000 ) ) ;
#176 = DATE_TIME_ROLE ( 'creation_date' ) ;
#177 = ADVANCED_FACE ( 'NONE', ( #144 ), #50, .T. ) ;
#178 = AXIS2_PLACEMENT_3D ( 'NONE', #205, #189, #254 ) ;
#179 = APPLICATION_CONTEXT ( 'configuration controlled 3d designs of mechanical parts and assemblies' ) ;
#180 = CARTESIAN_POINT ( 'NONE',  ( 6.982962677686261977E-15, 0.0000000000000000000, 1.999999999999998668 ) ) ;
#181 = EDGE_LOOP ( 'NONE', ( #52 ) ) ;
#182 = ORGANIZATION ( 'UNSPECIFIED', 'UNSPECIFIED', '' ) ;
#183 = FACE_OUTER_BOUND ( 'NONE', #10, .T. ) ;
#184 = ORIENTED_EDGE ( 'NONE', *, *, #252, .F. ) ;
#185 = DIRECTION ( 'NONE',  ( 3.491481338843133355E-15, -0.0000000000000000000, 1.000000000000000000 ) ) ;
#186 = EDGE_LOOP ( 'NONE', ( #130 ) ) ;
#187 = AXIS2_PLACEMENT_3D ( 'NONE', #165, #102, #255 ) ;
#188 = CC_DESIGN_APPROVAL ( #119, ( #221 ) ) ;
#189 = DIRECTION ( 'NONE',  ( 3.491481338843133355E-15, -1.224646799147353207E-16, 1.000000000000000000 ) ) ;
#190 = EDGE_LOOP ( 'NONE', ( #13 ) ) ;
#191 = APPLICATION_PROTOCOL_DEFINITION ( 'international standard', 'config_control_design', 1994, #179 ) ;
#192 = ADVANCED_FACE ( 'NONE', ( #183 ), #129, .T. ) ;
#193 = DATE_AND_TIME ( #218, #199 ) ;
#194 = CIRCLE ( 'NONE', #187, 5.000000000000000000 ) ;
#195 = PERSON_AND_ORGANIZATION ( #227, #182 ) ;
#196 = VERTEX_POINT ( 'NONE', #78 ) ;
#197 = AXIS2_PLACEMENT_3D ( 'NONE', #148, #73, #75 ) ;
#198 = COORDINATED_UNIVERSAL_TIME_OFFSET ( 1, 0, .AHEAD. ) ;
#199 = LOCAL_TIME ( 9, 13, 13.00000000000000000, #38 ) ;
#200 = COORDINATED_UNIVERSAL_TIME_OFFSET ( 1, 0, .AHEAD. ) ;
#201 = APPROVAL_STATUS ( 'not_yet_approved' ) ;
#202 = AXIS2_PLACEMENT_3D ( 'NONE', #127, #232, #229 ) ;
#203 = DIRECTION ( 'NONE',  ( 1.000000000000000000, 0.0000000000000000000, -3.469446951953614189E-15 ) ) ;
#204 = ADVANCED_FACE ( 'NONE', ( #146 ), #14, .F. ) ;
#205 = CARTESIAN_POINT ( 'NONE',  ( 4.189777606611760026E-14, 3.749399456654641830E-32, 12.00000000000000000 ) ) ;
#206 = AXIS2_PLACEMENT_3D ( 'NONE', #90, #185, #203 ) ;
#207 = EDGE_LOOP ( 'NONE', ( #143 ) ) ;
#208 = DIRECTION ( 'NONE',  ( 4.275831445896958607E-31, 1.000000000000000000, 1.224646799147353207E-16 ) ) ;
#209 = ORIENTED_EDGE ( 'NONE', *, *, #46, .T. ) ;
#210 = FACE_BOUND ( 'NONE', #231, .T. ) ;
#211 = EDGE_LOOP ( 'NONE', ( #149 ) ) ;
#212 = FACE_OUTER_BOUND ( 'NONE', #207, .T. ) ;
#213 = ADVANCED_FACE ( 'NONE', ( #103 ), #8, .F. ) ;
#214 = VERTEX_POINT ( 'NONE', #59 ) ;
#215 = FACE_OUTER_BOUND ( 'NONE', #256, .T. ) ;
#216 = APPROVAL_ROLE ( '' ) ;
#217 = DIRECTION ( 'NONE',  ( 3.491481338843133355E-15, -0.0000000000000000000, 1.000000000000000000 ) ) ;
#218 = CALENDAR_DATE ( 2021, 18, 11 ) ;
#219 = CYLINDRICAL_SURFACE ( 'NONE', #86, 5.000000000000000000 ) ;
#220 = COORDINATED_UNIVERSAL_TIME_OFFSET ( 1, 0, .AHEAD. ) ;
#221 = PRODUCT_DEFINITION_FORMATION_WITH_SPECIFIED_SOURCE ( 'ANY', '', #161, .NOT_KNOWN. ) ;
#222 = APPROVAL_STATUS ( 'not_yet_approved' ) ;
#223 = ADVANCED_FACE ( 'NONE', ( #210, #34 ), #22, .T. ) ;
#224 = APPROVAL_ROLE ( '' ) ;
#225 = ADVANCED_FACE ( 'NONE', ( #173, #258 ), #260, .T. ) ;
#226 = DATE_AND_TIME ( #249, #169 ) ;
#227 = PERSON ( 'UNSPECIFIED', 'UNSPECIFIED', 'UNSPECIFIED', ('UNSPECIFIED'), ('UNSPECIFIED'), ('UNSPECIFIED') ) ;
#228 = SECURITY_CLASSIFICATION ( '', '', #6 ) ;
#229 = DIRECTION ( 'NONE',  ( 4.275831445896958607E-31, 1.000000000000000000, 1.224646799147353207E-16 ) ) ;
#230 = CARTESIAN_POINT ( 'NONE',  ( 1.047444401652940007E-13, 0.0000000000000000000, 30.00000000000000000 ) ) ;
#231 = EDGE_LOOP ( 'NONE', ( #166 ) ) ;
#232 = DIRECTION ( 'NONE',  ( -3.491481338843133355E-15, 1.224646799147353207E-16, -1.000000000000000000 ) ) ;
#233 = APPROVAL ( #201, 'UNSPECIFIED' ) ;
#234 = APPROVAL_PERSON_ORGANIZATION ( #28, #119, #224 ) ;
#235 = EDGE_LOOP ( 'NONE', ( #104 ) ) ;
#236 = DIRECTION ( 'NONE',  ( -4.275831445896958607E-31, -1.000000000000000000, -1.224646799147353207E-16 ) ) ;
#237 = CARTESIAN_POINT ( 'NONE',  ( 1.095452270062032538E-13, 0.0000000000000000000, 31.37499999999998579 ) ) ;
#238 = EDGE_LOOP ( 'NONE', ( #33 ) ) ;
#239 = VERTEX_POINT ( 'NONE', #262 ) ;
#240 = EDGE_LOOP ( 'NONE', ( #74 ) ) ;
#241 =( LENGTH_UNIT ( ) NAMED_UNIT ( * ) SI_UNIT ( .MILLI., .METRE. ) );
#242 = VERTEX_POINT ( 'NONE', #171 ) ;
#243 = CARTESIAN_POINT ( 'NONE',  ( 4.189777606611760026E-14, 4.999999999999998224, 12.00000000000000000 ) ) ;
#244 = AXIS2_PLACEMENT_3D ( 'NONE', #125, #9, #236 ) ;
#245 = DIRECTION ( 'NONE',  ( 1.000000000000000000, 0.0000000000000000000, -3.491481338843132961E-15 ) ) ;
#246 = SHAPE_DEFINITION_REPRESENTATION ( #62, #29 ) ;
#247 = TOROIDAL_SURFACE ( 'NONE', #80, 3.000000000000000000, 1.999999999999999556 ) ;
#248 = AXIS2_PLACEMENT_3D ( 'NONE', #88, #140, #32 ) ;
#249 = CALENDAR_DATE ( 2021, 18, 11 ) ;
#250 = LOCAL_TIME ( 9, 13, 13.00000000000000000, #154 ) ;
#251 = AXIS2_PLACEMENT_3D ( 'NONE', #122, #11, #208 ) ;
#252 = EDGE_CURVE ( 'NONE', #20, #20, #5, .T. ) ;
#253 = ORIENTED_EDGE ( 'NONE', *, *, #252, .T. ) ;
#254 = DIRECTION ( 'NONE',  ( -4.275831445896958607E-31, -1.000000000000000000, -1.224646799147353207E-16 ) ) ;
#255 = DIRECTION ( 'NONE',  ( 0.0000000000000000000, 1.000000000000000000, 0.0000000000000000000 ) ) ;
#256 = EDGE_LOOP ( 'NONE', ( #253 ) ) ;
#257 = FACE_OUTER_BOUND ( 'NONE', #55, .T. ) ;
#258 = FACE_OUTER_BOUND ( 'NONE', #190, .T. ) ;
#259 = CC_DESIGN_PERSON_AND_ORGANIZATION_ASSIGNMENT ( #162, #2, ( #228 ) ) ;
#260 = CYLINDRICAL_SURFACE ( 'NONE', #115, 4.625000000000000000 ) ;
#261 = AXIS2_PLACEMENT_3D ( 'NONE', #230, #51, #30 ) ;
#262 = CARTESIAN_POINT ( 'NONE',  ( 4.625000000000041744, 0.0000000000000000000, 11.99999999999998401 ) ) ;
#263 = FACE_OUTER_BOUND ( 'NONE', #238, .T. ) ;
ENDSEC;
END-ISO-10303-21;
