ISO-10303-21;
HEADER;
FILE_DESCRIPTION (( 'STEP AP203' ),
    '1' );
FILE_NAME ('56649.step',
    '2021-11-18T08:13:10',
    ( '' ),
    ( '' ),
    'SwSTEP 2.0',
    'SolidWorks 2019',
    '' );
FILE_SCHEMA (( 'CONFIG_CONTROL_DESIGN' ));
ENDSEC;

DATA;
#1 = AXIS2_PLACEMENT_3D ( 'NONE', #65, #142, #225 ) ;
#2 = FACE_OUTER_BOUND ( 'NONE', #230, .T. ) ;
#3 = DIRECTION ( 'NONE',  ( 3.491481338843133355E-15, -0.0000000000000000000, 1.000000000000000000 ) ) ;
#4 = ADVANCED_FACE ( 'NONE', ( #120 ), #8, .F. ) ;
#5 = ORIENTED_EDGE ( 'NONE', *, *, #119, .F. ) ;
#6 = COORDINATED_UNIVERSAL_TIME_OFFSET ( 1, 0, .AHEAD. ) ;
#7 = AXIS2_PLACEMENT_3D ( 'NONE', #207, #204, #184 ) ;
#8 = PLANE ( 'NONE',  #15 ) ;
#9 =( NAMED_UNIT ( * ) PLANE_ANGLE_UNIT ( ) SI_UNIT ( $, .RADIAN. ) );
#10 = FACE_OUTER_BOUND ( 'NONE', #138, .T. ) ;
#11 = APPROVAL_DATE_TIME ( #189, #256 ) ;
#12 = CC_DESIGN_PERSON_AND_ORGANIZATION_ASSIGNMENT ( #13, #110, ( #194 ) ) ;
#13 = PERSON_AND_ORGANIZATION ( #79, #124 ) ;
#14 = FACE_OUTER_BOUND ( 'NONE', #156, .T. ) ;
#15 = AXIS2_PLACEMENT_3D ( 'NONE', #26, #186, #104 ) ;
#16 = LOCAL_TIME ( 9, 13, 10.00000000000000000, #250 ) ;
#17 = DIRECTION ( 'NONE',  ( 1.000000000000000000, 0.0000000000000000000, -3.700743415417188731E-15 ) ) ;
#18 =( NAMED_UNIT ( * ) SI_UNIT ( $, .STERADIAN. ) SOLID_ANGLE_UNIT ( ) );
#19 = ADVANCED_FACE ( 'NONE', ( #85, #102 ), #199, .T. ) ;
#20 = ORIENTED_EDGE ( 'NONE', *, *, #126, .T. ) ;
#21 = CIRCLE ( 'NONE', #7, 4.000000000000000000 ) ;
#22 = AXIS2_PLACEMENT_3D ( 'NONE', #173, #236, #112 ) ;
#23 = PRODUCT ( '56649', '56649', '', ( #86 ) ) ;
#24 = DIRECTION ( 'NONE',  ( 1.000000000000000000, 0.0000000000000000000, -3.469446951953614978E-15 ) ) ;
#25 = EDGE_CURVE ( 'NONE', #170, #170, #84, .T. ) ;
#26 = CARTESIAN_POINT ( 'NONE',  ( 2.618611004132350143E-13, 2.624579619658241508E-32, 75.00000000000000000 ) ) ;
#27 = CALENDAR_DATE ( 2021, 18, 11 ) ;
#28 = FACE_OUTER_BOUND ( 'NONE', #249, .T. ) ;
#29 = AXIS2_PLACEMENT_3D ( 'NONE', #111, #216, #54 ) ;
#30 = APPROVAL_STATUS ( 'not_yet_approved' ) ;
#31 = ORIENTED_EDGE ( 'NONE', *, *, #243, .F. ) ;
#32 = COORDINATED_UNIVERSAL_TIME_OFFSET ( 1, 0, .AHEAD. ) ;
#33 = SHAPE_DEFINITION_REPRESENTATION ( #56, #49 ) ;
#34 = CARTESIAN_POINT ( 'NONE',  ( 0.0000000000000000000, 0.0000000000000000000, 0.0000000000000000000 ) ) ;
#35 = DIRECTION ( 'NONE',  ( 3.491481338843133355E-15, -0.0000000000000000000, 1.000000000000000000 ) ) ;
#36 = EDGE_LOOP ( 'NONE', ( #154 ) ) ;
#37 = AXIS2_PLACEMENT_3D ( 'NONE', #167, #247, #202 ) ;
#38 = AXIS2_PLACEMENT_3D ( 'NONE', #45, #71, #24 ) ;
#39 = FACE_OUTER_BOUND ( 'NONE', #46, .T. ) ;
#40 = FACE_OUTER_BOUND ( 'NONE', #60, .T. ) ;
#41 = CC_DESIGN_PERSON_AND_ORGANIZATION_ASSIGNMENT ( #115, #74, ( #23 ) ) ;
#42 = TOROIDAL_SURFACE ( 'NONE', #1, 2.000000000000000000, 2.000000000000000000 ) ;
#43 = CC_DESIGN_APPROVAL ( #256, ( #90 ) ) ;
#44 = CC_DESIGN_DATE_AND_TIME_ASSIGNMENT ( #128, #131, ( #163 ) ) ;
#45 = CARTESIAN_POINT ( 'NONE',  ( 1.021258291611616475E-13, 0.0000000000000000000, 29.25000000000000000 ) ) ;
#46 = EDGE_LOOP ( 'NONE', ( #155 ) ) ;
#47 = CALENDAR_DATE ( 2021, 18, 11 ) ;
#48 = ORIENTED_EDGE ( 'NONE', *, *, #91, .T. ) ;
#49 = ADVANCED_BREP_SHAPE_REPRESENTATION ( '56649', ( #51, #137, #62 ), #168 ) ;
#50 = AXIS2_PLACEMENT_3D ( 'NONE', #232, #93, #89 ) ;
#51 = MANIFOLD_SOLID_BREP ( 'Corps-Déplacer/Copier1[1]', #122 ) ;
#52 = DIRECTION ( 'NONE',  ( 4.275831445896958607E-31, 1.000000000000000000, 1.224646799147353207E-16 ) ) ;
#53 = VERTEX_POINT ( 'NONE', #58 ) ;
#54 = DIRECTION ( 'NONE',  ( 4.275831445896958607E-31, 1.000000000000000000, 1.224646799147353207E-16 ) ) ;
#55 = CARTESIAN_POINT ( 'NONE',  ( 3.750000000000035083, 0.0000000000000000000, 9.999999999999985789 ) ) ;
#56 = PRODUCT_DEFINITION_SHAPE ( 'NONE', 'NONE',  #163 ) ;
#57 = ADVANCED_FACE ( 'NONE', ( #2, #81 ), #239, .T. ) ;
#58 = CARTESIAN_POINT ( 'NONE',  ( 4.000000000000098588, 0.0000000000000000000, 28.24999999999998579 ) ) ;
#59 = CC_DESIGN_APPROVAL ( #144, ( #163 ) ) ;
#60 = EDGE_LOOP ( 'NONE', ( #240 ) ) ;
#61 = EDGE_LOOP ( 'NONE', ( #220 ) ) ;
#62 = AXIS2_PLACEMENT_3D ( 'NONE', #229, #175, #72 ) ;
#63 = APPROVAL_PERSON_ORGANIZATION ( #195, #144, #95 ) ;
#64 = ADVANCED_FACE ( 'NONE', ( #252 ), #101, .F. ) ;
#65 = CARTESIAN_POINT ( 'NONE',  ( 6.982962677686261977E-15, 0.0000000000000000000, 1.999999999999998668 ) ) ;
#66 = DIRECTION ( 'NONE',  ( 1.000000000000000000, 0.0000000000000000000, -3.491481338843133355E-15 ) ) ;
#67 = PERSON_AND_ORGANIZATION ( #79, #124 ) ;
#68 = EDGE_LOOP ( 'NONE', ( #172 ) ) ;
#69 = VERTEX_POINT ( 'NONE', #88 ) ;
#70 = EDGE_LOOP ( 'NONE', ( #96 ) ) ;
#71 = DIRECTION ( 'NONE',  ( 3.491481338843133355E-15, -0.0000000000000000000, 1.000000000000000000 ) ) ;
#72 = DIRECTION ( 'NONE',  ( 1.000000000000000000, 0.0000000000000000000, 0.0000000000000000000 ) ) ;
#73 = FACE_OUTER_BOUND ( 'NONE', #139, .T. ) ;
#74 = PERSON_AND_ORGANIZATION_ROLE ( 'design_owner' ) ;
#75 = CARTESIAN_POINT ( 'NONE',  ( -4.542565983319587431E-30, 0.0000000000000000000, -1.301042606982605321E-15 ) ) ;
#76 = AXIS2_PLACEMENT_3D ( 'NONE', #130, #228, #146 ) ;
#77 = ORIENTED_EDGE ( 'NONE', *, *, #243, .T. ) ;
#78 = AXIS2_PLACEMENT_3D ( 'NONE', #197, #212, #113 ) ;
#79 = PERSON ( 'UNSPECIFIED', 'UNSPECIFIED', 'UNSPECIFIED', ('UNSPECIFIED'), ('UNSPECIFIED'), ('UNSPECIFIED') ) ;
#80 = CARTESIAN_POINT ( 'NONE',  ( 3.491481338843133355E-14, 2.999519565323713574E-32, 10.00000000000000000 ) ) ;
#81 = FACE_BOUND ( 'NONE', #178, .T. ) ;
#82 = APPLICATION_CONTEXT ( 'configuration controlled 3d designs of mechanical parts and assemblies' ) ;
#83 = DIRECTION ( 'NONE',  ( -4.275831445896958607E-31, -1.000000000000000000, -1.224646799147353207E-16 ) ) ;
#84 = CIRCLE ( 'NONE', #221, 4.000000000000000000 ) ;
#85 = FACE_BOUND ( 'NONE', #68, .T. ) ;
#86 = MECHANICAL_CONTEXT ( 'NONE', #211, 'mechanical' ) ;
#87 = DIRECTION ( 'NONE',  ( -3.491481338843133355E-15, 1.224646799147353207E-16, -1.000000000000000000 ) ) ;
#88 = CARTESIAN_POINT ( 'NONE',  ( 2.618611004132350143E-13, 3.499999999999996003, 75.00000000000000000 ) ) ;
#89 = DIRECTION ( 'NONE',  ( 0.0000000000000000000, 1.000000000000000000, 0.0000000000000000000 ) ) ;
#90 = PRODUCT_DEFINITION_FORMATION_WITH_SPECIFIED_SOURCE ( 'ANY', '', #23, .NOT_KNOWN. ) ;
#91 = EDGE_CURVE ( 'NONE', #148, #148, #117, .T. ) ;
#92 = CC_DESIGN_SECURITY_CLASSIFICATION ( #194, ( #90 ) ) ;
#93 = DIRECTION ( 'NONE',  ( -3.491481338843133355E-15, 1.224646799147353207E-16, -1.000000000000000000 ) ) ;
#94 = CC_DESIGN_DATE_AND_TIME_ASSIGNMENT ( #190, #121, ( #194 ) ) ;
#95 = APPROVAL_ROLE ( '' ) ;
#96 = ORIENTED_EDGE ( 'NONE', *, *, #262, .F. ) ;
#97 = EDGE_LOOP ( 'NONE', ( #5 ) ) ;
#98 = ADVANCED_FACE ( 'NONE', ( #245, #28 ), #42, .T. ) ;
#99 = CC_DESIGN_PERSON_AND_ORGANIZATION_ASSIGNMENT ( #165, #248, ( #90 ) ) ;
#100 = ORIENTED_EDGE ( 'NONE', *, *, #25, .F. ) ;
#101 = PLANE ( 'NONE',  #166 ) ;
#102 = FACE_OUTER_BOUND ( 'NONE', #116, .T. ) ;
#103 = PERSON_AND_ORGANIZATION ( #79, #124 ) ;
#104 = DIRECTION ( 'NONE',  ( 4.275831445896958607E-31, 1.000000000000000000, 1.224646799147353207E-16 ) ) ;
#105 = CIRCLE ( 'NONE', #37, 3.750000000000000000 ) ;
#106 = APPROVAL_ROLE ( '' ) ;
#107 = LOCAL_TIME ( 9, 13, 10.00000000000000000, #209 ) ;
#108 = FACE_OUTER_BOUND ( 'NONE', #241, .T. ) ;
#109 = CALENDAR_DATE ( 2021, 18, 11 ) ;
#110 = PERSON_AND_ORGANIZATION_ROLE ( 'classification_officer' ) ;
#111 = CARTESIAN_POINT ( 'NONE',  ( -8.551662891793915461E-31, 2.999519565323715216E-32, -2.449293598294706414E-16 ) ) ;
#112 = DIRECTION ( 'NONE',  ( 0.0000000000000000000, 1.000000000000000000, 0.0000000000000000000 ) ) ;
#113 = DIRECTION ( 'NONE',  ( -4.275831445896958607E-31, -1.000000000000000000, -1.224646799147353207E-16 ) ) ;
#114 = AXIS2_PLACEMENT_3D ( 'NONE', #183, #3, #66 ) ;
#115 = PERSON_AND_ORGANIZATION ( #79, #124 ) ;
#116 = EDGE_LOOP ( 'NONE', ( #31 ) ) ;
#117 = CIRCLE ( 'NONE', #217, 4.000000000000000000 ) ;
#118 = LOCAL_TIME ( 9, 13, 10.00000000000000000, #201 ) ;
#119 = EDGE_CURVE ( 'NONE', #237, #237, #105, .T. ) ;
#120 = FACE_OUTER_BOUND ( 'NONE', #70, .T. ) ;
#121 = DATE_TIME_ROLE ( 'classification_date' ) ;
#122 = CLOSED_SHELL ( 'NONE', ( #213, #19, #4, #177, #57, #64 ) ) ;
#123 = CYLINDRICAL_SURFACE ( 'NONE', #114, 3.750000000000000000 ) ;
#124 = ORGANIZATION ( 'UNSPECIFIED', 'UNSPECIFIED', '' ) ;
#125 = CARTESIAN_POINT ( 'NONE',  ( 0.0000000000000000000, 0.0000000000000000000, 0.0000000000000000000 ) ) ;
#126 = EDGE_CURVE ( 'NONE', #53, #53, #21, .T. ) ;
#127 = CYLINDRICAL_SURFACE ( 'NONE', #255, 4.000000000000000000 ) ;
#128 = DATE_AND_TIME ( #47, #231 ) ;
#129 = SECURITY_CLASSIFICATION_LEVEL ( 'unclassified' ) ;
#130 = CARTESIAN_POINT ( 'NONE',  ( 2.601153597438134034E-13, -9.123618653647779582E-15, 74.49999999999998579 ) ) ;
#131 = DATE_TIME_ROLE ( 'creation_date' ) ;
#132 = CARTESIAN_POINT ( 'NONE',  ( 3.750000000000097256, 0.0000000000000000000, 27.99999999999998579 ) ) ;
#133 = FACE_OUTER_BOUND ( 'NONE', #36, .T. ) ;
#134 = CARTESIAN_POINT ( 'NONE',  ( 4.000000000000007105, 0.0000000000000000000, 1.999999999999984901 ) ) ;
#135 = CLOSED_SHELL ( 'NONE', ( #141, #235, #98, #196 ) ) ;
#136 = APPROVAL_DATE_TIME ( #259, #144 ) ;
#137 = MANIFOLD_SOLID_BREP ( 'Corps-Déplacer/Copier1[2]', #135 ) ;
#138 = EDGE_LOOP ( 'NONE', ( #180 ) ) ;
#139 = EDGE_LOOP ( 'NONE', ( #77 ) ) ;
#140 = AXIS2_PLACEMENT_3D ( 'NONE', #34, #193, #52 ) ;
#141 = ADVANCED_FACE ( 'NONE', ( #10, #108 ), #127, .T. ) ;
#142 = DIRECTION ( 'NONE',  ( 3.491481338843133355E-15, -0.0000000000000000000, 1.000000000000000000 ) ) ;
#143 = CARTESIAN_POINT ( 'NONE',  ( 9.776147748760773395E-14, 0.0000000000000000000, 28.00000000000000000 ) ) ;
#144 = APPROVAL ( #208, 'UNSPECIFIED' ) ;
#145 = APPROVAL_ROLE ( '' ) ;
#146 = DIRECTION ( 'NONE',  ( 0.0000000000000000000, 1.000000000000000000, 0.0000000000000000000 ) ) ;
#147 = DIRECTION ( 'NONE',  ( 1.000000000000000000, 0.0000000000000000000, -3.469446951953614189E-15 ) ) ;
#148 = VERTEX_POINT ( 'NONE', #150 ) ;
#149 = APPROVAL_DATE_TIME ( #251, #157 ) ;
#150 = CARTESIAN_POINT ( 'NONE',  ( 3.491481338843133355E-14, 3.999999999999999112, 10.00000000000000000 ) ) ;
#151 = FACE_OUTER_BOUND ( 'NONE', #219, .T. ) ;
#152 = PLANE ( 'NONE',  #78 ) ;
#153 = CALENDAR_DATE ( 2021, 18, 11 ) ;
#154 = ORIENTED_EDGE ( 'NONE', *, *, #91, .F. ) ;
#155 = ORIENTED_EDGE ( 'NONE', *, *, #119, .T. ) ;
#156 = EDGE_LOOP ( 'NONE', ( #222 ) ) ;
#157 = APPROVAL ( #253, 'UNSPECIFIED' ) ;
#158 = LOCAL_TIME ( 9, 13, 10.00000000000000000, #32 ) ;
#159 = CIRCLE ( 'NONE', #50, 3.999999999999999112 ) ;
#160 = CIRCLE ( 'NONE', #22, 3.500000000000005329 ) ;
#161 = UNCERTAINTY_MEASURE_WITH_UNIT (LENGTH_MEASURE( 1.000000000000000082E-05 ), #176, 'distance_accuracy_value', 'NONE');
#162 = DIRECTION ( 'NONE',  ( 3.491481338843133355E-15, -1.224646799147353207E-16, 1.000000000000000000 ) ) ;
#163 = PRODUCT_DEFINITION ( 'UNKNOWN', '', #90, #244 ) ;
#164 = CARTESIAN_POINT ( 'NONE',  ( 3.491481338843133355E-14, -1.224646799147353256E-15, 10.00000000000000000 ) ) ;
#165 = PERSON_AND_ORGANIZATION ( #79, #124 ) ;
#166 = AXIS2_PLACEMENT_3D ( 'NONE', #80, #162, #83 ) ;
#167 = CARTESIAN_POINT ( 'NONE',  ( 3.491481338843133355E-14, 0.0000000000000000000, 10.00000000000000000 ) ) ;
#168 =( GEOMETRIC_REPRESENTATION_CONTEXT ( 3 ) GLOBAL_UNCERTAINTY_ASSIGNED_CONTEXT ( ( #161 ) ) GLOBAL_UNIT_ASSIGNED_CONTEXT ( ( #176, #9, #18 ) ) REPRESENTATION_CONTEXT ( 'NONE', 'WORKASPACE' ) );
#169 = VERTEX_POINT ( 'NONE', #214 ) ;
#170 = VERTEX_POINT ( 'NONE', #134 ) ;
#171 = PERSON_AND_ORGANIZATION_ROLE ( 'design_supplier' ) ;
#172 = ORIENTED_EDGE ( 'NONE', *, *, #262, .T. ) ;
#173 = CARTESIAN_POINT ( 'NONE',  ( 2.618611004132350143E-13, -9.184850993605148733E-15, 75.00000000000000000 ) ) ;
#174 = AXIS2_PLACEMENT_3D ( 'NONE', #75, #35, #238 ) ;
#175 = DIRECTION ( 'NONE',  ( 0.0000000000000000000, 0.0000000000000000000, 1.000000000000000000 ) ) ;
#176 =( LENGTH_UNIT ( ) NAMED_UNIT ( * ) SI_UNIT ( .MILLI., .METRE. ) );
#177 = ADVANCED_FACE ( 'NONE', ( #39, #40 ), #123, .T. ) ;
#178 = EDGE_LOOP ( 'NONE', ( #198 ) ) ;
#179 = AXIS2_PLACEMENT_3D ( 'NONE', #143, #226, #17 ) ;
#180 = ORIENTED_EDGE ( 'NONE', *, *, #25, .T. ) ;
#181 = EDGE_CURVE ( 'NONE', #187, #187, #260, .T. ) ;
#182 = CC_DESIGN_PERSON_AND_ORGANIZATION_ASSIGNMENT ( #246, #171, ( #90 ) ) ;
#183 = CARTESIAN_POINT ( 'NONE',  ( -1.282749433769087757E-30, 0.0000000000000000000, -3.673940397442059868E-16 ) ) ;
#184 = DIRECTION ( 'NONE',  ( 1.000000000000000000, 0.0000000000000000000, -3.469446951953614189E-15 ) ) ;
#185 = PERSON_AND_ORGANIZATION_ROLE ( 'creator' ) ;
#186 = DIRECTION ( 'NONE',  ( -3.491481338843133355E-15, 1.224646799147353207E-16, -1.000000000000000000 ) ) ;
#187 = VERTEX_POINT ( 'NONE', #132 ) ;
#188 = DIRECTION ( 'NONE',  ( 3.491481338843133355E-15, -0.0000000000000000000, 1.000000000000000000 ) ) ;
#189 = DATE_AND_TIME ( #109, #158 ) ;
#190 = DATE_AND_TIME ( #27, #107 ) ;
#191 = CYLINDRICAL_SURFACE ( 'NONE', #140, 4.000000000000000000 ) ;
#192 = CARTESIAN_POINT ( 'NONE',  ( 2.000000000000000444, 0.0000000000000000000, -8.284005284668873609E-15 ) ) ;
#193 = DIRECTION ( 'NONE',  ( -3.491481338843133355E-15, 1.224646799147353207E-16, -1.000000000000000000 ) ) ;
#194 = SECURITY_CLASSIFICATION ( '', '', #129 ) ;
#195 = PERSON_AND_ORGANIZATION ( #79, #124 ) ;
#196 = ADVANCED_FACE ( 'NONE', ( #14 ), #210, .T. ) ;
#197 = CARTESIAN_POINT ( 'NONE',  ( 3.491481338843133355E-14, 2.999519565323713574E-32, 10.00000000000000000 ) ) ;
#198 = ORIENTED_EDGE ( 'NONE', *, *, #181, .T. ) ;
#199 = CONICAL_SURFACE ( 'NONE', #76, 3.999999999999999112, 0.7853981633974279619 ) ;
#200 = CARTESIAN_POINT ( 'NONE',  ( 6.982962677686261977E-15, 0.0000000000000000000, 1.999999999999998668 ) ) ;
#201 = COORDINATED_UNIVERSAL_TIME_OFFSET ( 1, 0, .AHEAD. ) ;
#202 = DIRECTION ( 'NONE',  ( 1.000000000000000000, 0.0000000000000000000, -3.700743415417188731E-15 ) ) ;
#203 = DIRECTION ( 'NONE',  ( -3.491481338843133355E-15, 1.224646799147353207E-16, -1.000000000000000000 ) ) ;
#204 = DIRECTION ( 'NONE',  ( 3.491481338843133355E-15, -0.0000000000000000000, 1.000000000000000000 ) ) ;
#205 = PERSON_AND_ORGANIZATION ( #79, #124 ) ;
#206 = CIRCLE ( 'NONE', #174, 2.000000000000000444 ) ;
#207 = CARTESIAN_POINT ( 'NONE',  ( 9.863434782231852675E-14, 0.0000000000000000000, 28.25000000000000000 ) ) ;
#208 = APPROVAL_STATUS ( 'not_yet_approved' ) ;
#209 = COORDINATED_UNIVERSAL_TIME_OFFSET ( 1, 0, .AHEAD. ) ;
#210 = PLANE ( 'NONE',  #29 ) ;
#211 = APPLICATION_CONTEXT ( 'configuration controlled 3d designs of mechanical parts and assemblies' ) ;
#212 = DIRECTION ( 'NONE',  ( 3.491481338843133355E-15, -1.224646799147353207E-16, 1.000000000000000000 ) ) ;
#213 = ADVANCED_FACE ( 'NONE', ( #73, #151 ), #191, .T. ) ;
#214 = CARTESIAN_POINT ( 'NONE',  ( 2.601153597438134034E-13, 3.999999999999989786, 74.49999999999998579 ) ) ;
#215 = PRODUCT_RELATED_PRODUCT_CATEGORY ( 'detail', '', ( #23 ) ) ;
#216 = DIRECTION ( 'NONE',  ( -3.491481338843133355E-15, 1.224646799147353207E-16, -1.000000000000000000 ) ) ;
#217 = AXIS2_PLACEMENT_3D ( 'NONE', #164, #203, #224 ) ;
#218 = VERTEX_POINT ( 'NONE', #192 ) ;
#219 = EDGE_LOOP ( 'NONE', ( #20 ) ) ;
#220 = ORIENTED_EDGE ( 'NONE', *, *, #223, .T. ) ;
#221 = AXIS2_PLACEMENT_3D ( 'NONE', #200, #188, #147 ) ;
#222 = ORIENTED_EDGE ( 'NONE', *, *, #223, .F. ) ;
#223 = EDGE_CURVE ( 'NONE', #218, #218, #206, .T. ) ;
#224 = DIRECTION ( 'NONE',  ( 0.0000000000000000000, 1.000000000000000000, 0.0000000000000000000 ) ) ;
#225 = DIRECTION ( 'NONE',  ( 1.000000000000000000, 0.0000000000000000000, -3.491481338843133355E-15 ) ) ;
#226 = DIRECTION ( 'NONE',  ( 3.491481338843133355E-15, -0.0000000000000000000, 1.000000000000000000 ) ) ;
#227 = CALENDAR_DATE ( 2021, 18, 11 ) ;
#228 = DIRECTION ( 'NONE',  ( -3.491481338843133355E-15, 1.224646799147353207E-16, -1.000000000000000000 ) ) ;
#229 = CARTESIAN_POINT ( 'NONE',  ( 0.0000000000000000000, 0.0000000000000000000, 0.0000000000000000000 ) ) ;
#230 = EDGE_LOOP ( 'NONE', ( #261 ) ) ;
#231 = LOCAL_TIME ( 9, 13, 10.00000000000000000, #6 ) ;
#232 = CARTESIAN_POINT ( 'NONE',  ( 2.601153597438134034E-13, -9.123618653647779582E-15, 74.49999999999998579 ) ) ;
#233 = APPROVAL_PERSON_ORGANIZATION ( #67, #157, #145 ) ;
#234 = APPLICATION_PROTOCOL_DEFINITION ( 'international standard', 'config_control_design', 1994, #82 ) ;
#235 = ADVANCED_FACE ( 'NONE', ( #133 ), #152, .T. ) ;
#236 = DIRECTION ( 'NONE',  ( -3.491481338843133355E-15, 1.224646799147353207E-16, -1.000000000000000000 ) ) ;
#237 = VERTEX_POINT ( 'NONE', #55 ) ;
#238 = DIRECTION ( 'NONE',  ( 1.000000000000000000, 0.0000000000000000000, -3.491481338843133355E-15 ) ) ;
#239 = CONICAL_SURFACE ( 'NONE', #38, 4.999999999999999112, 0.7853981633974490562 ) ;
#240 = ORIENTED_EDGE ( 'NONE', *, *, #181, .F. ) ;
#241 = EDGE_LOOP ( 'NONE', ( #48 ) ) ;
#242 = APPROVAL_PERSON_ORGANIZATION ( #205, #256, #106 ) ;
#243 = EDGE_CURVE ( 'NONE', #169, #169, #159, .T. ) ;
#244 = DESIGN_CONTEXT ( 'detailed design', #82, 'design' ) ;
#245 = FACE_OUTER_BOUND ( 'NONE', #61, .T. ) ;
#246 = PERSON_AND_ORGANIZATION ( #79, #124 ) ;
#247 = DIRECTION ( 'NONE',  ( 3.491481338843133355E-15, -0.0000000000000000000, 1.000000000000000000 ) ) ;
#248 = PERSON_AND_ORGANIZATION_ROLE ( 'creator' ) ;
#249 = EDGE_LOOP ( 'NONE', ( #100 ) ) ;
#250 = COORDINATED_UNIVERSAL_TIME_OFFSET ( 1, 0, .AHEAD. ) ;
#251 = DATE_AND_TIME ( #227, #118 ) ;
#252 = FACE_OUTER_BOUND ( 'NONE', #97, .T. ) ;
#253 = APPROVAL_STATUS ( 'not_yet_approved' ) ;
#254 = DIRECTION ( 'NONE',  ( 4.275831445896958607E-31, 1.000000000000000000, 1.224646799147353207E-16 ) ) ;
#255 = AXIS2_PLACEMENT_3D ( 'NONE', #125, #87, #254 ) ;
#256 = APPROVAL ( #30, 'UNSPECIFIED' ) ;
#257 = CC_DESIGN_APPROVAL ( #157, ( #194 ) ) ;
#258 = APPLICATION_PROTOCOL_DEFINITION ( 'international standard', 'config_control_design', 1994, #211 ) ;
#259 = DATE_AND_TIME ( #153, #16 ) ;
#260 = CIRCLE ( 'NONE', #179, 3.750000000000000000 ) ;
#261 = ORIENTED_EDGE ( 'NONE', *, *, #126, .F. ) ;
#262 = EDGE_CURVE ( 'NONE', #69, #69, #160, .T. ) ;
#263 = CC_DESIGN_PERSON_AND_ORGANIZATION_ASSIGNMENT ( #103, #185, ( #163 ) ) ;
ENDSEC;
END-ISO-10303-21;
