ISO-10303-21;
HEADER;
FILE_DESCRIPTION (( 'STEP AP203' ),
    '1' );
FILE_NAME ('56647.step',
    '2021-11-18T08:13:08',
    ( '' ),
    ( '' ),
    'SwSTEP 2.0',
    'SolidWorks 2019',
    '' );
FILE_SCHEMA (( 'CONFIG_CONTROL_DESIGN' ));
ENDSEC;

DATA;
#1 = ORIENTED_EDGE ( 'NONE', *, *, #48, .T. ) ;
#2 = MANIFOLD_SOLID_BREP ( 'Corps-Déplacer/Copier1[2]', #66 ) ;
#3 = COORDINATED_UNIVERSAL_TIME_OFFSET ( 1, 0, .AHEAD. ) ;
#4 = DATE_AND_TIME ( #63, #9 ) ;
#5 = CIRCLE ( 'NONE', #68, 1.500000000000000222 ) ;
#6 = DIRECTION ( 'NONE',  ( 1.000000000000000000, 0.0000000000000000000, -3.491481338843133355E-15 ) ) ;
#7 = DESIGN_CONTEXT ( 'detailed design', #233, 'design' ) ;
#8 = ADVANCED_FACE ( 'NONE', ( #240 ), #220, .F. ) ;
#9 = LOCAL_TIME ( 9, 13, 8.000000000000000000, #3 ) ;
#10 = CARTESIAN_POINT ( 'NONE',  ( 3.142333204958819389E-14, 2.999999999999998668, 8.999999999999998224 ) ) ;
#11 = PERSON ( 'UNSPECIFIED', 'UNSPECIFIED', 'UNSPECIFIED', ('UNSPECIFIED'), ('UNSPECIFIED'), ('UNSPECIFIED') ) ;
#12 = APPLICATION_PROTOCOL_DEFINITION ( 'international standard', 'config_control_design', 1994, #156 ) ;
#13 = ORIENTED_EDGE ( 'NONE', *, *, #182, .T. ) ;
#14 = DIRECTION ( 'NONE',  ( -3.491481338843133355E-15, 1.224646799147353207E-16, -1.000000000000000000 ) ) ;
#15 = CONICAL_SURFACE ( 'NONE', #135, 2.999999999999996447, 0.7853981633974410625 ) ;
#16 = ORIENTED_EDGE ( 'NONE', *, *, #262, .F. ) ;
#17 = APPROVAL_ROLE ( '' ) ;
#18 = SECURITY_CLASSIFICATION_LEVEL ( 'unclassified' ) ;
#19 = ORIENTED_EDGE ( 'NONE', *, *, #243, .F. ) ;
#20 = APPROVAL ( #168, 'UNSPECIFIED' ) ;
#21 = PERSON_AND_ORGANIZATION_ROLE ( 'design_owner' ) ;
#22 = EDGE_LOOP ( 'NONE', ( #13 ) ) ;
#23 = COORDINATED_UNIVERSAL_TIME_OFFSET ( 1, 0, .AHEAD. ) ;
#24 = FACE_OUTER_BOUND ( 'NONE', #238, .T. ) ;
#25 = AXIS2_PLACEMENT_3D ( 'NONE', #244, #188, #83 ) ;
#26 = DIRECTION ( 'NONE',  ( 3.491481338843133355E-15, -0.0000000000000000000, 1.000000000000000000 ) ) ;
#27 = ADVANCED_BREP_SHAPE_REPRESENTATION ( '56647', ( #180, #2, #25 ), #142 ) ;
#28 = ADVANCED_FACE ( 'NONE', ( #39, #200 ), #245, .T. ) ;
#29 = AXIS2_PLACEMENT_3D ( 'NONE', #112, #91, #248 ) ;
#30 = APPROVAL_PERSON_ORGANIZATION ( #103, #230, #121 ) ;
#31 = CARTESIAN_POINT ( 'NONE',  ( 5.237222008264695300E-15, 0.0000000000000000000, 1.499999999999998668 ) ) ;
#32 = DIRECTION ( 'NONE',  ( 0.0000000000000000000, 1.000000000000000000, 0.0000000000000000000 ) ) ;
#33 = EDGE_LOOP ( 'NONE', ( #138 ) ) ;
#34 = CYLINDRICAL_SURFACE ( 'NONE', #198, 3.000000000000000000 ) ;
#35 = CARTESIAN_POINT ( 'NONE',  ( 1.500000000000000222, 0.0000000000000000000, -6.321424180750205256E-15 ) ) ;
#36 = CIRCLE ( 'NONE', #221, 2.750000000000000000 ) ;
#37 = CARTESIAN_POINT ( 'NONE',  ( 2.304377683636468267E-13, 1.874699728327322557E-32, 66.00000000000000000 ) ) ;
#38 = DATE_AND_TIME ( #69, #47 ) ;
#39 = FACE_OUTER_BOUND ( 'NONE', #56, .T. ) ;
#40 = DATE_TIME_ROLE ( 'classification_date' ) ;
#41 = ORIENTED_EDGE ( 'NONE', *, *, #182, .F. ) ;
#42 = PERSON_AND_ORGANIZATION ( #11, #95 ) ;
#43 = DIRECTION ( 'NONE',  ( 1.000000000000000000, 0.0000000000000000000, -3.469446951953616161E-15 ) ) ;
#44 = DATE_AND_TIME ( #165, #58 ) ;
#45 = CARTESIAN_POINT ( 'NONE',  ( 8.379555213223520053E-14, 0.0000000000000000000, 24.00000000000000000 ) ) ;
#46 = DIRECTION ( 'NONE',  ( 3.491481338843133355E-15, -0.0000000000000000000, 1.000000000000000000 ) ) ;
#47 = LOCAL_TIME ( 9, 13, 8.000000000000000000, #107 ) ;
#48 = EDGE_CURVE ( 'NONE', #78, #78, #108, .T. ) ;
#49 = CIRCLE ( 'NONE', #159, 2.999999999999999556 ) ;
#50 = DIRECTION ( 'NONE',  ( 3.491481338843133355E-15, -1.224646799147353207E-16, 1.000000000000000000 ) ) ;
#51 = VERTEX_POINT ( 'NONE', #215 ) ;
#52 = AXIS2_PLACEMENT_3D ( 'NONE', #118, #197, #122 ) ;
#53 = ADVANCED_FACE ( 'NONE', ( #59 ), #253, .T. ) ;
#54 = ORIENTED_EDGE ( 'NONE', *, *, #232, .T. ) ;
#55 = CARTESIAN_POINT ( 'NONE',  ( 5.237222008264695300E-15, 0.0000000000000000000, 1.499999999999998668 ) ) ;
#56 = EDGE_LOOP ( 'NONE', ( #41 ) ) ;
#57 = APPROVAL_DATE_TIME ( #225, #93 ) ;
#58 = LOCAL_TIME ( 9, 13, 8.000000000000000000, #241 ) ;
#59 = FACE_OUTER_BOUND ( 'NONE', #106, .T. ) ;
#60 = DATE_AND_TIME ( #201, #80 ) ;
#61 = EDGE_LOOP ( 'NONE', ( #139 ) ) ;
#62 = PRODUCT_DEFINITION_SHAPE ( 'NONE', 'NONE',  #110 ) ;
#63 = CALENDAR_DATE ( 2021, 18, 11 ) ;
#64 = CC_DESIGN_DATE_AND_TIME_ASSIGNMENT ( #38, #129, ( #110 ) ) ;
#65 = CARTESIAN_POINT ( 'NONE',  ( 8.466842246694599333E-14, 0.0000000000000000000, 24.25000000000000000 ) ) ;
#66 = CLOSED_SHELL ( 'NONE', ( #72, #53, #193, #133 ) ) ;
#67 = DIRECTION ( 'NONE',  ( -3.491481338843133355E-15, 1.224646799147353207E-16, -1.000000000000000000 ) ) ;
#68 = AXIS2_PLACEMENT_3D ( 'NONE', #151, #128, #204 ) ;
#69 = CALENDAR_DATE ( 2021, 18, 11 ) ;
#70 = PLANE ( 'NONE',  #208 ) ;
#71 = FACE_OUTER_BOUND ( 'NONE', #84, .T. ) ;
#72 = ADVANCED_FACE ( 'NONE', ( #258, #237 ), #34, .T. ) ;
#73 = PRODUCT_DEFINITION_FORMATION_WITH_SPECIFIED_SOURCE ( 'ANY', '', #209, .NOT_KNOWN. ) ;
#74 = CC_DESIGN_PERSON_AND_ORGANIZATION_ASSIGNMENT ( #149, #85, ( #136 ) ) ;
#75 = FACE_OUTER_BOUND ( 'NONE', #164, .T. ) ;
#76 = CIRCLE ( 'NONE', #227, 2.999999999999998224 ) ;
#77 = VERTEX_POINT ( 'NONE', #234 ) ;
#78 = VERTEX_POINT ( 'NONE', #10 ) ;
#79 = CARTESIAN_POINT ( 'NONE',  ( 3.000000000000083045, 0.0000000000000000000, 24.24999999999998934 ) ) ;
#80 = LOCAL_TIME ( 9, 13, 8.000000000000000000, #111 ) ;
#81 = CARTESIAN_POINT ( 'NONE',  ( 3.142333204958819389E-14, 2.249639673992785043E-32, 8.999999999999998224 ) ) ;
#82 = EDGE_LOOP ( 'NONE', ( #88 ) ) ;
#83 = DIRECTION ( 'NONE',  ( 1.000000000000000000, 0.0000000000000000000, 0.0000000000000000000 ) ) ;
#84 = EDGE_LOOP ( 'NONE', ( #242 ) ) ;
#85 = PERSON_AND_ORGANIZATION_ROLE ( 'classification_officer' ) ;
#86 = TOROIDAL_SURFACE ( 'NONE', #155, 1.500000000000000000, 1.499999999999999778 ) ;
#87 = EDGE_LOOP ( 'NONE', ( #1 ) ) ;
#88 = ORIENTED_EDGE ( 'NONE', *, *, #232, .F. ) ;
#89 = CALENDAR_DATE ( 2021, 18, 11 ) ;
#90 = CIRCLE ( 'NONE', #52, 2.500000000000017319 ) ;
#91 = DIRECTION ( 'NONE',  ( 3.491481338843133355E-15, -0.0000000000000000000, 1.000000000000000000 ) ) ;
#92 = CC_DESIGN_SECURITY_CLASSIFICATION ( #136, ( #73 ) ) ;
#93 = APPROVAL ( #152, 'UNSPECIFIED' ) ;
#94 = VERTEX_POINT ( 'NONE', #177 ) ;
#95 = ORGANIZATION ( 'UNSPECIFIED', 'UNSPECIFIED', '' ) ;
#96 = CARTESIAN_POINT ( 'NONE',  ( 2.286920276942253168E-13, -8.021436534415166404E-15, 65.50000000000001421 ) ) ;
#97 = EDGE_CURVE ( 'NONE', #194, #194, #90, .T. ) ;
#98 =( NAMED_UNIT ( * ) PLANE_ANGLE_UNIT ( ) SI_UNIT ( $, .RADIAN. ) );
#99 = CARTESIAN_POINT ( 'NONE',  ( 8.815990380578911407E-14, 0.0000000000000000000, 25.24999999999999645 ) ) ;
#100 = PRODUCT_RELATED_PRODUCT_CATEGORY ( 'detail', '', ( #209 ) ) ;
#101 = AXIS2_PLACEMENT_3D ( 'NONE', #231, #50, #236 ) ;
#102 = ORIENTED_EDGE ( 'NONE', *, *, #190, .T. ) ;
#103 = PERSON_AND_ORGANIZATION ( #11, #95 ) ;
#104 = DIRECTION ( 'NONE',  ( -4.275831445896958607E-31, -1.000000000000000000, -1.224646799147353207E-16 ) ) ;
#105 = APPROVAL_DATE_TIME ( #60, #230 ) ;
#106 = EDGE_LOOP ( 'NONE', ( #235 ) ) ;
#107 = COORDINATED_UNIVERSAL_TIME_OFFSET ( 1, 0, .AHEAD. ) ;
#108 = CIRCLE ( 'NONE', #161, 3.000000000000000000 ) ;
#109 = EDGE_LOOP ( 'NONE', ( #102 ) ) ;
#110 = PRODUCT_DEFINITION ( 'UNKNOWN', '', #73, #7 ) ;
#111 = COORDINATED_UNIVERSAL_TIME_OFFSET ( 1, 0, .AHEAD. ) ;
#112 = CARTESIAN_POINT ( 'NONE',  ( -1.282749433769087757E-30, 0.0000000000000000000, -3.673940397442059868E-16 ) ) ;
#113 = DIRECTION ( 'NONE',  ( 3.491481338843133355E-15, -0.0000000000000000000, 1.000000000000000000 ) ) ;
#114 = CLOSED_SHELL ( 'NONE', ( #147, #226, #8, #125, #28, #213 ) ) ;
#115 = EDGE_LOOP ( 'NONE', ( #124 ) ) ;
#116 = CC_DESIGN_PERSON_AND_ORGANIZATION_ASSIGNMENT ( #259, #228, ( #73 ) ) ;
#117 = VERTEX_POINT ( 'NONE', #160 ) ;
#118 = CARTESIAN_POINT ( 'NONE',  ( 2.304377683636468267E-13, -8.082668874372532400E-15, 66.00000000000000000 ) ) ;
#119 = DIRECTION ( 'NONE',  ( 3.491481338843133355E-15, -0.0000000000000000000, 1.000000000000000000 ) ) ;
#120 = DIRECTION ( 'NONE',  ( -3.491481338843133355E-15, 1.224646799147353207E-16, -1.000000000000000000 ) ) ;
#121 = APPROVAL_ROLE ( '' ) ;
#122 = DIRECTION ( 'NONE',  ( 0.0000000000000000000, 1.000000000000000000, 0.0000000000000000000 ) ) ;
#123 = SHAPE_DEFINITION_REPRESENTATION ( #62, #27 ) ;
#124 = ORIENTED_EDGE ( 'NONE', *, *, #190, .F. ) ;
#125 = ADVANCED_FACE ( 'NONE', ( #189, #249 ), #154, .T. ) ;
#126 = AXIS2_PLACEMENT_3D ( 'NONE', #99, #187, #217 ) ;
#127 = PERSON_AND_ORGANIZATION ( #11, #95 ) ;
#128 = DIRECTION ( 'NONE',  ( 3.491481338843133355E-15, -0.0000000000000000000, 1.000000000000000000 ) ) ;
#129 = DATE_TIME_ROLE ( 'creation_date' ) ;
#130 = FACE_OUTER_BOUND ( 'NONE', #185, .T. ) ;
#131 = APPROVAL_PERSON_ORGANIZATION ( #42, #20, #257 ) ;
#132 = DIRECTION ( 'NONE',  ( 1.000000000000000000, 0.0000000000000000000, -3.784851220313034736E-15 ) ) ;
#133 = ADVANCED_FACE ( 'NONE', ( #71 ), #70, .T. ) ;
#134 = CARTESIAN_POINT ( 'NONE',  ( -6.413747168845438786E-31, 2.249639673992786412E-32, -1.836970198721029934E-16 ) ) ;
#135 = AXIS2_PLACEMENT_3D ( 'NONE', #96, #14, #32 ) ;
#136 = SECURITY_CLASSIFICATION ( '', '', #18 ) ;
#137 = CARTESIAN_POINT ( 'NONE',  ( 2.286920276942253168E-13, -8.021436534415166404E-15, 65.50000000000001421 ) ) ;
#138 = ORIENTED_EDGE ( 'NONE', *, *, #262, .T. ) ;
#139 = ORIENTED_EDGE ( 'NONE', *, *, #243, .T. ) ;
#140 = CARTESIAN_POINT ( 'NONE',  ( 3.142333204958819389E-14, 0.0000000000000000000, 8.999999999999998224 ) ) ;
#141 = ORIENTED_EDGE ( 'NONE', *, *, #175, .T. ) ;
#142 =( GEOMETRIC_REPRESENTATION_CONTEXT ( 3 ) GLOBAL_UNCERTAINTY_ASSIGNED_CONTEXT ( ( #256 ) ) GLOBAL_UNIT_ASSIGNED_CONTEXT ( ( #211, #98, #192 ) ) REPRESENTATION_CONTEXT ( 'NONE', 'WORKASPACE' ) );
#143 = PERSON_AND_ORGANIZATION_ROLE ( 'creator' ) ;
#144 = CC_DESIGN_APPROVAL ( #93, ( #73 ) ) ;
#145 = DIRECTION ( 'NONE',  ( -3.491481338843133355E-15, 1.224646799147353207E-16, -1.000000000000000000 ) ) ;
#146 = PERSON_AND_ORGANIZATION ( #11, #95 ) ;
#147 = ADVANCED_FACE ( 'NONE', ( #75, #229 ), #174, .T. ) ;
#148 = EDGE_LOOP ( 'NONE', ( #202 ) ) ;
#149 = PERSON_AND_ORGANIZATION ( #11, #95 ) ;
#150 = CIRCLE ( 'NONE', #184, 2.749999999999999112 ) ;
#151 = CARTESIAN_POINT ( 'NONE',  ( -3.785471652766322976E-30, 0.0000000000000000000, -1.084202172485504434E-15 ) ) ;
#152 = APPROVAL_STATUS ( 'not_yet_approved' ) ;
#153 = DIRECTION ( 'NONE',  ( 4.275831445896958607E-31, 1.000000000000000000, 1.224646799147353207E-16 ) ) ;
#154 = CYLINDRICAL_SURFACE ( 'NONE', #29, 2.749999999999999556 ) ;
#155 = AXIS2_PLACEMENT_3D ( 'NONE', #31, #26, #6 ) ;
#156 = APPLICATION_CONTEXT ( 'configuration controlled 3d designs of mechanical parts and assemblies' ) ;
#157 = CC_DESIGN_PERSON_AND_ORGANIZATION_ASSIGNMENT ( #127, #21, ( #209 ) ) ;
#158 = FACE_OUTER_BOUND ( 'NONE', #255, .T. ) ;
#159 = AXIS2_PLACEMENT_3D ( 'NONE', #55, #199, #179 ) ;
#160 = CARTESIAN_POINT ( 'NONE',  ( 2.750000000000082601, 0.0000000000000000000, 23.99999999999998934 ) ) ;
#161 = AXIS2_PLACEMENT_3D ( 'NONE', #183, #260, #169 ) ;
#162 = DIRECTION ( 'NONE',  ( 3.491481338843133355E-15, -1.224646799147353207E-16, 1.000000000000000000 ) ) ;
#163 = FACE_OUTER_BOUND ( 'NONE', #82, .T. ) ;
#164 = EDGE_LOOP ( 'NONE', ( #54 ) ) ;
#165 = CALENDAR_DATE ( 2021, 18, 11 ) ;
#166 = CARTESIAN_POINT ( 'NONE',  ( 0.0000000000000000000, 0.0000000000000000000, 0.0000000000000000000 ) ) ;
#167 = CC_DESIGN_APPROVAL ( #20, ( #110 ) ) ;
#168 = APPROVAL_STATUS ( 'not_yet_approved' ) ;
#169 = DIRECTION ( 'NONE',  ( 0.0000000000000000000, 1.000000000000000000, 0.0000000000000000000 ) ) ;
#170 = DIRECTION ( 'NONE',  ( -3.491481338843133355E-15, 1.224646799147353207E-16, -1.000000000000000000 ) ) ;
#171 = CARTESIAN_POINT ( 'NONE',  ( 0.0000000000000000000, 0.0000000000000000000, 0.0000000000000000000 ) ) ;
#172 = APPROVAL_DATE_TIME ( #4, #20 ) ;
#173 = CIRCLE ( 'NONE', #178, 2.999999999999996447 ) ;
#174 = CYLINDRICAL_SURFACE ( 'NONE', #252, 2.999999999999998224 ) ;
#175 = EDGE_CURVE ( 'NONE', #219, #219, #5, .T. ) ;
#176 = LOCAL_TIME ( 9, 13, 8.000000000000000000, #23 ) ;
#177 = CARTESIAN_POINT ( 'NONE',  ( 2.286920276942253168E-13, 2.999999999999988898, 65.50000000000001421 ) ) ;
#178 = AXIS2_PLACEMENT_3D ( 'NONE', #137, #254, #196 ) ;
#179 = DIRECTION ( 'NONE',  ( 1.000000000000000000, 0.0000000000000000000, -3.469446951953614583E-15 ) ) ;
#180 = MANIFOLD_SOLID_BREP ( 'Corps-Déplacer/Copier1[1]', #114 ) ;
#181 = VERTEX_POINT ( 'NONE', #79 ) ;
#182 = EDGE_CURVE ( 'NONE', #181, #181, #76, .T. ) ;
#183 = CARTESIAN_POINT ( 'NONE',  ( 3.142333204958819389E-14, -1.102182119232617517E-15, 8.999999999999998224 ) ) ;
#184 = AXIS2_PLACEMENT_3D ( 'NONE', #45, #46, #132 ) ;
#185 = EDGE_LOOP ( 'NONE', ( #141 ) ) ;
#186 = PERSON_AND_ORGANIZATION_ROLE ( 'creator' ) ;
#187 = DIRECTION ( 'NONE',  ( 3.491481338843133355E-15, -0.0000000000000000000, 1.000000000000000000 ) ) ;
#188 = DIRECTION ( 'NONE',  ( 0.0000000000000000000, 0.0000000000000000000, 1.000000000000000000 ) ) ;
#189 = FACE_OUTER_BOUND ( 'NONE', #33, .T. ) ;
#190 = EDGE_CURVE ( 'NONE', #117, #117, #150, .T. ) ;
#191 = CC_DESIGN_DATE_AND_TIME_ASSIGNMENT ( #44, #40, ( #136 ) ) ;
#192 =( NAMED_UNIT ( * ) SI_UNIT ( $, .STERADIAN. ) SOLID_ANGLE_UNIT ( ) );
#193 = ADVANCED_FACE ( 'NONE', ( #130, #24 ), #86, .T. ) ;
#194 = VERTEX_POINT ( 'NONE', #251 ) ;
#195 = EDGE_LOOP ( 'NONE', ( #224 ) ) ;
#196 = DIRECTION ( 'NONE',  ( 0.0000000000000000000, 1.000000000000000000, 0.0000000000000000000 ) ) ;
#197 = DIRECTION ( 'NONE',  ( -3.491481338843133355E-15, 1.224646799147353207E-16, -1.000000000000000000 ) ) ;
#198 = AXIS2_PLACEMENT_3D ( 'NONE', #166, #145, #223 ) ;
#199 = DIRECTION ( 'NONE',  ( 3.491481338843133355E-15, -0.0000000000000000000, 1.000000000000000000 ) ) ;
#200 = FACE_BOUND ( 'NONE', #109, .T. ) ;
#201 = CALENDAR_DATE ( 2021, 18, 11 ) ;
#202 = ORIENTED_EDGE ( 'NONE', *, *, #97, .T. ) ;
#203 = AXIS2_PLACEMENT_3D ( 'NONE', #37, #120, #216 ) ;
#204 = DIRECTION ( 'NONE',  ( 1.000000000000000000, 0.0000000000000000000, -3.491481338843133355E-15 ) ) ;
#205 = APPLICATION_PROTOCOL_DEFINITION ( 'international standard', 'config_control_design', 1994, #233 ) ;
#206 = PLANE ( 'NONE',  #101 ) ;
#207 = CC_DESIGN_PERSON_AND_ORGANIZATION_ASSIGNMENT ( #222, #186, ( #73 ) ) ;
#208 = AXIS2_PLACEMENT_3D ( 'NONE', #134, #170, #153 ) ;
#209 = PRODUCT ( '56647', '56647', '', ( #263 ) ) ;
#210 = DIRECTION ( 'NONE',  ( 4.275831445896958607E-31, 1.000000000000000000, 1.224646799147353454E-16 ) ) ;
#211 =( LENGTH_UNIT ( ) NAMED_UNIT ( * ) SI_UNIT ( .MILLI., .METRE. ) );
#212 = FACE_BOUND ( 'NONE', #148, .T. ) ;
#213 = ADVANCED_FACE ( 'NONE', ( #158 ), #206, .F. ) ;
#214 = APPROVAL_PERSON_ORGANIZATION ( #146, #93, #17 ) ;
#215 = CARTESIAN_POINT ( 'NONE',  ( 2.750000000000031086, 0.0000000000000000000, 8.999999999999987566 ) ) ;
#216 = DIRECTION ( 'NONE',  ( 4.275831445896958607E-31, 1.000000000000000000, 1.224646799147353207E-16 ) ) ;
#217 = DIRECTION ( 'NONE',  ( 1.000000000000000000, 0.0000000000000000000, -3.469446951953617344E-15 ) ) ;
#218 = CC_DESIGN_PERSON_AND_ORGANIZATION_ASSIGNMENT ( #247, #143, ( #110 ) ) ;
#219 = VERTEX_POINT ( 'NONE', #35 ) ;
#220 = PLANE ( 'NONE',  #203 ) ;
#221 = AXIS2_PLACEMENT_3D ( 'NONE', #140, #119, #250 ) ;
#222 = PERSON_AND_ORGANIZATION ( #11, #95 ) ;
#223 = DIRECTION ( 'NONE',  ( 4.275831445896959482E-31, 1.000000000000000000, 1.224646799147353207E-16 ) ) ;
#224 = ORIENTED_EDGE ( 'NONE', *, *, #97, .F. ) ;
#225 = DATE_AND_TIME ( #89, #176 ) ;
#226 = ADVANCED_FACE ( 'NONE', ( #212, #163 ), #15, .T. ) ;
#227 = AXIS2_PLACEMENT_3D ( 'NONE', #65, #113, #43 ) ;
#228 = PERSON_AND_ORGANIZATION_ROLE ( 'design_supplier' ) ;
#229 = FACE_OUTER_BOUND ( 'NONE', #22, .T. ) ;
#230 = APPROVAL ( #239, 'UNSPECIFIED' ) ;
#231 = CARTESIAN_POINT ( 'NONE',  ( 3.142333204958819389E-14, 2.249639673992785043E-32, 8.999999999999998224 ) ) ;
#232 = EDGE_CURVE ( 'NONE', #94, #94, #173, .T. ) ;
#233 = APPLICATION_CONTEXT ( 'configuration controlled 3d designs of mechanical parts and assemblies' ) ;
#234 = CARTESIAN_POINT ( 'NONE',  ( 3.000000000000004885, 0.0000000000000000000, 1.499999999999988232 ) ) ;
#235 = ORIENTED_EDGE ( 'NONE', *, *, #48, .F. ) ;
#236 = DIRECTION ( 'NONE',  ( -4.275831445896958607E-31, -1.000000000000000000, -1.224646799147353207E-16 ) ) ;
#237 = FACE_OUTER_BOUND ( 'NONE', #87, .T. ) ;
#238 = EDGE_LOOP ( 'NONE', ( #19 ) ) ;
#239 = APPROVAL_STATUS ( 'not_yet_approved' ) ;
#240 = FACE_OUTER_BOUND ( 'NONE', #195, .T. ) ;
#241 = COORDINATED_UNIVERSAL_TIME_OFFSET ( 1, 0, .AHEAD. ) ;
#242 = ORIENTED_EDGE ( 'NONE', *, *, #175, .F. ) ;
#243 = EDGE_CURVE ( 'NONE', #77, #77, #49, .T. ) ;
#244 = CARTESIAN_POINT ( 'NONE',  ( 0.0000000000000000000, 0.0000000000000000000, 0.0000000000000000000 ) ) ;
#245 = CONICAL_SURFACE ( 'NONE', #126, 3.999999999999996447, 0.7853981633974482790 ) ;
#246 = CC_DESIGN_APPROVAL ( #230, ( #136 ) ) ;
#247 = PERSON_AND_ORGANIZATION ( #11, #95 ) ;
#248 = DIRECTION ( 'NONE',  ( 1.000000000000000000, 0.0000000000000000000, -3.491481338843133355E-15 ) ) ;
#249 = FACE_OUTER_BOUND ( 'NONE', #115, .T. ) ;
#250 = DIRECTION ( 'NONE',  ( 1.000000000000000000, 0.0000000000000000000, -3.784851220313033947E-15 ) ) ;
#251 = CARTESIAN_POINT ( 'NONE',  ( 2.304377683636468267E-13, 2.500000000000009326, 66.00000000000000000 ) ) ;
#252 = AXIS2_PLACEMENT_3D ( 'NONE', #171, #67, #210 ) ;
#253 = PLANE ( 'NONE',  #261 ) ;
#254 = DIRECTION ( 'NONE',  ( -3.491481338843133355E-15, 1.224646799147353207E-16, -1.000000000000000000 ) ) ;
#255 = EDGE_LOOP ( 'NONE', ( #16 ) ) ;
#256 = UNCERTAINTY_MEASURE_WITH_UNIT (LENGTH_MEASURE( 1.000000000000000082E-05 ), #211, 'distance_accuracy_value', 'NONE');
#257 = APPROVAL_ROLE ( '' ) ;
#258 = FACE_OUTER_BOUND ( 'NONE', #61, .T. ) ;
#259 = PERSON_AND_ORGANIZATION ( #11, #95 ) ;
#260 = DIRECTION ( 'NONE',  ( -3.491481338843133355E-15, 1.224646799147353207E-16, -1.000000000000000000 ) ) ;
#261 = AXIS2_PLACEMENT_3D ( 'NONE', #81, #162, #104 ) ;
#262 = EDGE_CURVE ( 'NONE', #51, #51, #36, .T. ) ;
#263 = MECHANICAL_CONTEXT ( 'NONE', #156, 'mechanical' ) ;
ENDSEC;
END-ISO-10303-21;
