ISO-10303-21;
HEADER;
FILE_DESCRIPTION (( 'STEP AP203' ),
    '1' );
FILE_NAME ('56646.step',
    '2023-01-24T14:41:02',
    ( '' ),
    ( '' ),
    'SwSTEP 2.0',
    'SolidWorks 2019',
    '' );
FILE_SCHEMA (( 'CONFIG_CONTROL_DESIGN' ));
ENDSEC;

DATA;
#1 = CALENDAR_DATE ( 2023, 24, 1 ) ;
#2 = PRODUCT_DEFINITION_FORMATION_WITH_SPECIFIED_SOURCE ( 'ANY', '', #61, .NOT_KNOWN. ) ;
#3 = CALENDAR_DATE ( 2023, 24, 1 ) ;
#4 = CALENDAR_DATE ( 2023, 24, 1 ) ;
#5 = SHAPE_DEFINITION_REPRESENTATION ( #64, #141 ) ;
#6 = PERSON_AND_ORGANIZATION ( #176, #49 ) ;
#7 = ADVANCED_FACE ( 'NONE', ( #169 ), #50, .T. ) ;
#8 = ORIENTED_EDGE ( 'NONE', *, *, #251, .F. ) ;
#9 = CIRCLE ( 'NONE', #95, 2.500000000000003553 ) ;
#10 = PRODUCT_RELATED_PRODUCT_CATEGORY ( 'detail', '', ( #61 ) ) ;
#11 = APPLICATION_CONTEXT ( 'configuration controlled 3d designs of mechanical parts and assemblies' ) ;
#12 = DIRECTION ( 'NONE',  ( 0.000000000000000000, 1.000000000000000000, 0.000000000000000000 ) ) ;
#13 = EDGE_LOOP ( 'NONE', ( #59 ) ) ;
#14 = VERTEX_POINT ( 'NONE', #97 ) ;
#15 = APPROVAL_PERSON_ORGANIZATION ( #62, #107, #201 ) ;
#16 = DIRECTION ( 'NONE',  ( 3.491481338843133355E-15, -1.224646799147353207E-16, 1.000000000000000000 ) ) ;
#17 = FACE_OUTER_BOUND ( 'NONE', #242, .T. ) ;
#18 = DIRECTION ( 'NONE',  ( 1.000000000000000000, 0.000000000000000000, 0.000000000000000000 ) ) ;
#19 = EDGE_LOOP ( 'NONE', ( #88 ) ) ;
#20 = AXIS2_PLACEMENT_3D ( 'NONE', #22, #25, #177 ) ;
#21 = DIRECTION ( 'NONE',  ( -3.491481338843133355E-15, 1.224646799147353207E-16, -1.000000000000000000 ) ) ;
#22 = CARTESIAN_POINT ( 'NONE',  ( 0.000000000000000000, 0.000000000000000000, 0.000000000000000000 ) ) ;
#23 = CARTESIAN_POINT ( 'NONE',  ( 3.142333204958819389E-14, -1.102182119232617517E-15, 8.999999999999998224 ) ) ;
#24 = APPROVAL_PERSON_ORGANIZATION ( #228, #202, #187 ) ;
#25 = DIRECTION ( 'NONE',  ( -3.491481338843133355E-15, 1.224646799147353207E-16, -1.000000000000000000 ) ) ;
#26 = DATE_TIME_ROLE ( 'creation_date' ) ;
#27 = COORDINATED_UNIVERSAL_TIME_OFFSET ( 1, 0, .AHEAD. ) ;
#28 = DIRECTION ( 'NONE',  ( 1.000000000000000000, 0.000000000000000000, -3.784851220313033947E-15 ) ) ;
#29 = ORIENTED_EDGE ( 'NONE', *, *, #251, .T. ) ;
#30 = ORIENTED_EDGE ( 'NONE', *, *, #153, .T. ) ;
#31 = CC_DESIGN_PERSON_AND_ORGANIZATION_ASSIGNMENT ( #6, #43, ( #2 ) ) ;
#32 = DIRECTION ( 'NONE',  ( 3.491481338843133355E-15, -0.000000000000000000, 1.000000000000000000 ) ) ;
#33 =( NAMED_UNIT ( * ) PLANE_ANGLE_UNIT ( ) SI_UNIT ( $, .RADIAN. ) );
#34 = ADVANCED_FACE ( 'NONE', ( #233, #193 ), #41, .T. ) ;
#35 = FACE_BOUND ( 'NONE', #150, .T. ) ;
#36 = AXIS2_PLACEMENT_3D ( 'NONE', #91, #32, #155 ) ;
#37 = CARTESIAN_POINT ( 'NONE',  ( 3.142333204958819389E-14, 2.999999999999999112, 8.999999999999998224 ) ) ;
#38 = EDGE_LOOP ( 'NONE', ( #48 ) ) ;
#39 = APPLICATION_PROTOCOL_DEFINITION ( 'international standard', 'config_control_design', 1994, #147 ) ;
#40 = PLANE ( 'NONE',  #203 ) ;
#41 = CYLINDRICAL_SURFACE ( 'NONE', #134, 3.000000000000000000 ) ;
#42 = VERTEX_POINT ( 'NONE', #51 ) ;
#43 = PERSON_AND_ORGANIZATION_ROLE ( 'creator' ) ;
#44 = APPROVAL_DATE_TIME ( #124, #93 ) ;
#45 = DATE_AND_TIME ( #1, #194 ) ;
#46 = PERSON_AND_ORGANIZATION ( #176, #49 ) ;
#47 = APPROVAL_DATE_TIME ( #45, #202 ) ;
#48 = ORIENTED_EDGE ( 'NONE', *, *, #125, .T. ) ;
#49 = ORGANIZATION ( 'UNSPECIFIED', 'UNSPECIFIED', '' ) ;
#50 = PLANE ( 'NONE',  #178 ) ;
#51 = CARTESIAN_POINT ( 'NONE',  ( 2.750000000000031086, 0.000000000000000000, 8.999999999999987566 ) ) ;
#52 = FACE_OUTER_BOUND ( 'NONE', #130, .T. ) ;
#53 = DIRECTION ( 'NONE',  ( 3.491481338843133355E-15, -0.000000000000000000, 1.000000000000000000 ) ) ;
#54 = DIRECTION ( 'NONE',  ( 1.000000000000000000, 0.000000000000000000, -3.491481338843133355E-15 ) ) ;
#55 = CIRCLE ( 'NONE', #84, 3.000000000000001776 ) ;
#56 = CARTESIAN_POINT ( 'NONE',  ( 0.000000000000000000, 0.000000000000000000, 0.000000000000000000 ) ) ;
#57 = CARTESIAN_POINT ( 'NONE',  ( 2.793185071074501951E-15, 0.000000000000000000, 0.7999999999999986011 ) ) ;
#58 = DIRECTION ( 'NONE',  ( 1.000000000000000000, 0.000000000000000000, -3.469446951953614189E-15 ) ) ;
#59 = ORIENTED_EDGE ( 'NONE', *, *, #153, .F. ) ;
#60 = VERTEX_POINT ( 'NONE', #256 ) ;
#61 = PRODUCT ( '56646', '56646', '', ( #175 ) ) ;
#62 = PERSON_AND_ORGANIZATION ( #176, #49 ) ;
#63 = COORDINATED_UNIVERSAL_TIME_OFFSET ( 1, 0, .AHEAD. ) ;
#64 = PRODUCT_DEFINITION_SHAPE ( 'NONE', 'NONE',  #190 ) ;
#65 = EDGE_LOOP ( 'NONE', ( #8 ) ) ;
#66 = EDGE_LOOP ( 'NONE', ( #218 ) ) ;
#67 = FACE_OUTER_BOUND ( 'NONE', #13, .T. ) ;
#68 = ADVANCED_FACE ( 'NONE', ( #158, #35 ), #239, .T. ) ;
#69 = PLANE ( 'NONE',  #200 ) ;
#70 = DIRECTION ( 'NONE',  ( 3.491481338843133355E-15, -1.224646799147353207E-16, 1.000000000000000000 ) ) ;
#71 = DIRECTION ( 'NONE',  ( 3.491481338843133355E-15, -0.000000000000000000, 1.000000000000000000 ) ) ;
#72 = DIRECTION ( 'NONE',  ( 4.275831445896958607E-31, 1.000000000000000000, 1.224646799147353207E-16 ) ) ;
#73 = VERTEX_POINT ( 'NONE', #214 ) ;
#74 = DIRECTION ( 'NONE',  ( 4.275831445896959482E-31, 1.000000000000000000, 1.224646799147353207E-16 ) ) ;
#75 = VERTEX_POINT ( 'NONE', #37 ) ;
#76 = CARTESIAN_POINT ( 'NONE',  ( 2.750000000000082601, 0.000000000000000000, 23.99999999999998934 ) ) ;
#77 = ADVANCED_FACE ( 'NONE', ( #174 ), #40, .F. ) ;
#78 = PERSON_AND_ORGANIZATION_ROLE ( 'creator' ) ;
#79 = LOCAL_TIME ( 15, 41, 2.000000000000000000, #188 ) ;
#80 = COORDINATED_UNIVERSAL_TIME_OFFSET ( 1, 0, .AHEAD. ) ;
#81 = EDGE_CURVE ( 'NONE', #221, #221, #9, .T. ) ;
#82 = CIRCLE ( 'NONE', #127, 2.749999999999999112 ) ;
#83 = PERSON_AND_ORGANIZATION_ROLE ( 'design_supplier' ) ;
#84 = AXIS2_PLACEMENT_3D ( 'NONE', #156, #246, #171 ) ;
#85 = CC_DESIGN_SECURITY_CLASSIFICATION ( #204, ( #2 ) ) ;
#86 = EDGE_LOOP ( 'NONE', ( #232 ) ) ;
#87 = DIRECTION ( 'NONE',  ( -3.491481338843133355E-15, 1.224646799147353207E-16, -1.000000000000000000 ) ) ;
#88 = ORIENTED_EDGE ( 'NONE', *, *, #238, .F. ) ;
#89 = EDGE_LOOP ( 'NONE', ( #159 ) ) ;
#90 = AXIS2_PLACEMENT_3D ( 'NONE', #240, #87, #222 ) ;
#91 = CARTESIAN_POINT ( 'NONE',  ( -6.056754644426116341E-30, 0.000000000000000000, -1.734723475976807094E-15 ) ) ;
#92 = CYLINDRICAL_SURFACE ( 'NONE', #20, 3.000000000000001776 ) ;
#93 = APPROVAL ( #224, 'UNSPECIFIED' ) ;
#94 = CARTESIAN_POINT ( 'NONE',  ( 0.000000000000000000, 0.000000000000000000, 0.000000000000000000 ) ) ;
#95 = AXIS2_PLACEMENT_3D ( 'NONE', #116, #195, #12 ) ;
#96 = CONICAL_SURFACE ( 'NONE', #252, 3.000000000000003553, 0.7853981633974479459 ) ;
#97 = CARTESIAN_POINT ( 'NONE',  ( 3.000000000000003109, 0.000000000000000000, 0.7999999999999881650 ) ) ;
#98 = PERSON_AND_ORGANIZATION ( #176, #49 ) ;
#99 = CLOSED_SHELL ( 'NONE', ( #34, #121, #161, #7 ) ) ;
#100 = CIRCLE ( 'NONE', #162, 2.750000000000000000 ) ;
#101 = PERSON_AND_ORGANIZATION ( #176, #49 ) ;
#102 = CC_DESIGN_DATE_AND_TIME_ASSIGNMENT ( #223, #122, ( #204 ) ) ;
#103 = PERSON_AND_ORGANIZATION ( #176, #49 ) ;
#104 = DATE_AND_TIME ( #226, #241 ) ;
#105 = AXIS2_PLACEMENT_3D ( 'NONE', #255, #70, #235 ) ;
#106 = FACE_BOUND ( 'NONE', #89, .T. ) ;
#107 = APPROVAL ( #186, 'UNSPECIFIED' ) ;
#108 = ORIENTED_EDGE ( 'NONE', *, *, #207, .F. ) ;
#109 = UNCERTAINTY_MEASURE_WITH_UNIT (LENGTH_MEASURE( 1.000000000000000082E-05 ), #260, 'distance_accuracy_value', 'NONE');
#110 = CC_DESIGN_PERSON_AND_ORGANIZATION_ASSIGNMENT ( #101, #78, ( #190 ) ) ;
#111 = DIRECTION ( 'NONE',  ( 1.000000000000000000, 0.000000000000000000, -3.505587024369797144E-15 ) ) ;
#112 = FACE_OUTER_BOUND ( 'NONE', #19, .T. ) ;
#113 = CARTESIAN_POINT ( 'NONE',  ( 2.286920276942252663E-13, -8.021436534415164826E-15, 65.50000000000000000 ) ) ;
#114 = AXIS2_PLACEMENT_3D ( 'NONE', #173, #71, #54 ) ;
#115 = EDGE_LOOP ( 'NONE', ( #231 ) ) ;
#116 = CARTESIAN_POINT ( 'NONE',  ( 2.304377683636468267E-13, -8.082668874372532400E-15, 66.00000000000000000 ) ) ;
#117 = DIRECTION ( 'NONE',  ( 0.000000000000000000, 0.000000000000000000, 1.000000000000000000 ) ) ;
#118 = DIRECTION ( 'NONE',  ( 1.000000000000000000, 0.000000000000000000, -3.491481338843133355E-15 ) ) ;
#119 = DIRECTION ( 'NONE',  ( -3.491481338843133355E-15, 1.224646799147353207E-16, -1.000000000000000000 ) ) ;
#120 = FACE_OUTER_BOUND ( 'NONE', #191, .T. ) ;
#121 = ADVANCED_FACE ( 'NONE', ( #236 ), #69, .T. ) ;
#122 = DATE_TIME_ROLE ( 'classification_date' ) ;
#123 = AXIS2_PLACEMENT_3D ( 'NONE', #212, #192, #58 ) ;
#124 = DATE_AND_TIME ( #3, #230 ) ;
#125 = EDGE_CURVE ( 'NONE', #60, #60, #179, .T. ) ;
#126 = DIRECTION ( 'NONE',  ( 3.491481338843133355E-15, -0.000000000000000000, 1.000000000000000000 ) ) ;
#127 = AXIS2_PLACEMENT_3D ( 'NONE', #160, #53, #168 ) ;
#128 = APPROVAL_PERSON_ORGANIZATION ( #46, #93, #249 ) ;
#129 = EDGE_LOOP ( 'NONE', ( #30 ) ) ;
#130 = EDGE_LOOP ( 'NONE', ( #254 ) ) ;
#131 = ADVANCED_FACE ( 'NONE', ( #112 ), #170, .F. ) ;
#132 = CARTESIAN_POINT ( 'NONE',  ( 3.142333204958819389E-14, 2.249639673992785317E-32, 8.999999999999998224 ) ) ;
#133 = DIRECTION ( 'NONE',  ( 4.275831445896958607E-31, 1.000000000000000000, 1.224646799147353207E-16 ) ) ;
#134 = AXIS2_PLACEMENT_3D ( 'NONE', #94, #119, #74 ) ;
#135 = AXIS2_PLACEMENT_3D ( 'NONE', #261, #253, #111 ) ;
#136 = EDGE_LOOP ( 'NONE', ( #244 ) ) ;
#137 = DIRECTION ( 'NONE',  ( 3.491481338843133355E-15, -0.000000000000000000, 1.000000000000000000 ) ) ;
#138 = FACE_OUTER_BOUND ( 'NONE', #115, .T. ) ;
#139 = ORIENTED_EDGE ( 'NONE', *, *, #217, .F. ) ;
#140 = CIRCLE ( 'NONE', #90, 3.000000000000003553 ) ;
#141 = ADVANCED_BREP_SHAPE_REPRESENTATION ( '56646', ( #243, #245, #164 ), #145 ) ;
#142 = COORDINATED_UNIVERSAL_TIME_OFFSET ( 1, 0, .AHEAD. ) ;
#143 = ADVANCED_FACE ( 'NONE', ( #138, #52 ), #213, .T. ) ;
#144 = CALENDAR_DATE ( 2023, 24, 1 ) ;
#145 =( GEOMETRIC_REPRESENTATION_CONTEXT ( 3 ) GLOBAL_UNCERTAINTY_ASSIGNED_CONTEXT ( ( #109 ) ) GLOBAL_UNIT_ASSIGNED_CONTEXT ( ( #260, #33, #258 ) ) REPRESENTATION_CONTEXT ( 'NONE', 'WORKASPACE' ) );
#146 = APPROVAL_DATE_TIME ( #189, #107 ) ;
#147 = APPLICATION_CONTEXT ( 'configuration controlled 3d designs of mechanical parts and assemblies' ) ;
#148 = CC_DESIGN_PERSON_AND_ORGANIZATION_ASSIGNMENT ( #98, #247, ( #204 ) ) ;
#149 = CC_DESIGN_APPROVAL ( #202, ( #204 ) ) ;
#150 = EDGE_LOOP ( 'NONE', ( #166 ) ) ;
#151 = ADVANCED_FACE ( 'NONE', ( #196, #17 ), #92, .T. ) ;
#152 = DIRECTION ( 'NONE',  ( -3.491481338843133355E-15, 1.224646799147353207E-16, -1.000000000000000000 ) ) ;
#153 = EDGE_CURVE ( 'NONE', #14, #14, #211, .T. ) ;
#154 = VERTEX_POINT ( 'NONE', #76 ) ;
#155 = DIRECTION ( 'NONE',  ( 1.000000000000000000, 0.000000000000000000, -3.491481338843133750E-15 ) ) ;
#156 = CARTESIAN_POINT ( 'NONE',  ( 8.466842246694600595E-14, 0.000000000000000000, 24.25000000000000355 ) ) ;
#157 = TOROIDAL_SURFACE ( 'NONE', #209, 2.199999999999999734, 0.8000000000000003775 ) ;
#158 = FACE_OUTER_BOUND ( 'NONE', #65, .T. ) ;
#159 = ORIENTED_EDGE ( 'NONE', *, *, #81, .T. ) ;
#160 = CARTESIAN_POINT ( 'NONE',  ( 8.379555213223520053E-14, 0.000000000000000000, 24.00000000000000000 ) ) ;
#161 = ADVANCED_FACE ( 'NONE', ( #234, #67 ), #157, .T. ) ;
#162 = AXIS2_PLACEMENT_3D ( 'NONE', #165, #126, #28 ) ;
#163 = CC_DESIGN_APPROVAL ( #107, ( #190 ) ) ;
#164 = AXIS2_PLACEMENT_3D ( 'NONE', #56, #117, #18 ) ;
#165 = CARTESIAN_POINT ( 'NONE',  ( 3.142333204958819389E-14, 0.000000000000000000, 8.999999999999998224 ) ) ;
#166 = ORIENTED_EDGE ( 'NONE', *, *, #227, .T. ) ;
#167 = CC_DESIGN_PERSON_AND_ORGANIZATION_ASSIGNMENT ( #103, #83, ( #2 ) ) ;
#168 = DIRECTION ( 'NONE',  ( 1.000000000000000000, 0.000000000000000000, -3.784851220313034736E-15 ) ) ;
#169 = FACE_OUTER_BOUND ( 'NONE', #210, .T. ) ;
#170 = PLANE ( 'NONE',  #105 ) ;
#171 = DIRECTION ( 'NONE',  ( 1.000000000000000000, 0.000000000000000000, -3.469446951953612217E-15 ) ) ;
#172 = DESIGN_CONTEXT ( 'detailed design', #11, 'design' ) ;
#173 = CARTESIAN_POINT ( 'NONE',  ( -1.282749433769087757E-30, 0.000000000000000000, -3.673940397442059868E-16 ) ) ;
#174 = FACE_OUTER_BOUND ( 'NONE', #66, .T. ) ;
#175 = MECHANICAL_CONTEXT ( 'NONE', #147, 'mechanical' ) ;
#176 = PERSON ( 'UNSPECIFIED', 'UNSPECIFIED', 'UNSPECIFIED', ('UNSPECIFIED'), ('UNSPECIFIED'), ('UNSPECIFIED') ) ;
#177 = DIRECTION ( 'NONE',  ( 4.275831445896958607E-31, 1.000000000000000000, 1.224646799147353207E-16 ) ) ;
#178 = AXIS2_PLACEMENT_3D ( 'NONE', #262, #220, #72 ) ;
#179 = CIRCLE ( 'NONE', #36, 2.199999999999999734 ) ;
#180 = CARTESIAN_POINT ( 'NONE',  ( 2.286920276942252663E-13, 2.999999999999995559, 65.50000000000000000 ) ) ;
#181 = CC_DESIGN_PERSON_AND_ORGANIZATION_ASSIGNMENT ( #219, #225, ( #61 ) ) ;
#182 = DIRECTION ( 'NONE',  ( -3.491481338843133355E-15, 1.224646799147353207E-16, -1.000000000000000000 ) ) ;
#183 = VERTEX_POINT ( 'NONE', #180 ) ;
#184 = APPROVAL_STATUS ( 'not_yet_approved' ) ;
#185 = CC_DESIGN_APPROVAL ( #93, ( #2 ) ) ;
#186 = APPROVAL_STATUS ( 'not_yet_approved' ) ;
#187 = APPROVAL_ROLE ( '' ) ;
#188 = COORDINATED_UNIVERSAL_TIME_OFFSET ( 1, 0, .AHEAD. ) ;
#189 = DATE_AND_TIME ( #4, #79 ) ;
#190 = PRODUCT_DEFINITION ( 'UNKNOWN', '', #2, #172 ) ;
#191 = EDGE_LOOP ( 'NONE', ( #108 ) ) ;
#192 = DIRECTION ( 'NONE',  ( 3.491481338843133355E-15, -0.000000000000000000, 1.000000000000000000 ) ) ;
#193 = FACE_OUTER_BOUND ( 'NONE', #136, .T. ) ;
#194 = LOCAL_TIME ( 15, 41, 2.000000000000000000, #80 ) ;
#195 = DIRECTION ( 'NONE',  ( -3.491481338843133355E-15, 1.224646799147353207E-16, -1.000000000000000000 ) ) ;
#196 = FACE_OUTER_BOUND ( 'NONE', #86, .T. ) ;
#197 = DIRECTION ( 'NONE',  ( -4.275831445896958607E-31, -1.000000000000000000, -1.224646799147353207E-16 ) ) ;
#198 = CC_DESIGN_DATE_AND_TIME_ASSIGNMENT ( #104, #26, ( #190 ) ) ;
#199 = CARTESIAN_POINT ( 'NONE',  ( 2.304377683636468267E-13, 2.499999999999995115, 66.00000000000000000 ) ) ;
#200 = AXIS2_PLACEMENT_3D ( 'NONE', #132, #16, #197 ) ;
#201 = APPROVAL_ROLE ( '' ) ;
#202 = APPROVAL ( #184, 'UNSPECIFIED' ) ;
#203 = AXIS2_PLACEMENT_3D ( 'NONE', #216, #152, #133 ) ;
#204 = SECURITY_CLASSIFICATION ( '', '', #205 ) ;
#205 = SECURITY_CLASSIFICATION_LEVEL ( 'unclassified' ) ;
#206 = APPLICATION_PROTOCOL_DEFINITION ( 'international standard', 'config_control_design', 1994, #11 ) ;
#207 = EDGE_CURVE ( 'NONE', #183, #183, #140, .T. ) ;
#208 = CIRCLE ( 'NONE', #248, 3.000000000000000444 ) ;
#209 = AXIS2_PLACEMENT_3D ( 'NONE', #57, #137, #118 ) ;
#210 = EDGE_LOOP ( 'NONE', ( #257 ) ) ;
#211 = CIRCLE ( 'NONE', #135, 3.000000000000000444 ) ;
#212 = CARTESIAN_POINT ( 'NONE',  ( 8.815990380578911407E-14, 0.000000000000000000, 25.24999999999999645 ) ) ;
#213 = CYLINDRICAL_SURFACE ( 'NONE', #114, 2.749999999999999556 ) ;
#214 = CARTESIAN_POINT ( 'NONE',  ( 3.000000000000086153, 0.000000000000000000, 24.24999999999999289 ) ) ;
#215 = LOCAL_TIME ( 15, 41, 2.000000000000000000, #142 ) ;
#216 = CARTESIAN_POINT ( 'NONE',  ( 2.304377683636468267E-13, 1.874699728327312431E-32, 66.00000000000000000 ) ) ;
#217 = EDGE_CURVE ( 'NONE', #75, #75, #208, .T. ) ;
#218 = ORIENTED_EDGE ( 'NONE', *, *, #81, .F. ) ;
#219 = PERSON_AND_ORGANIZATION ( #176, #49 ) ;
#220 = DIRECTION ( 'NONE',  ( -3.491481338843133355E-15, 1.224646799147353207E-16, -1.000000000000000000 ) ) ;
#221 = VERTEX_POINT ( 'NONE', #199 ) ;
#222 = DIRECTION ( 'NONE',  ( 0.000000000000000000, 1.000000000000000000, 0.000000000000000000 ) ) ;
#223 = DATE_AND_TIME ( #144, #215 ) ;
#224 = APPROVAL_STATUS ( 'not_yet_approved' ) ;
#225 = PERSON_AND_ORGANIZATION_ROLE ( 'design_owner' ) ;
#226 = CALENDAR_DATE ( 2023, 24, 1 ) ;
#227 = EDGE_CURVE ( 'NONE', #154, #154, #82, .T. ) ;
#228 = PERSON_AND_ORGANIZATION ( #176, #49 ) ;
#229 = CLOSED_SHELL ( 'NONE', ( #151, #250, #77, #143, #68, #131 ) ) ;
#230 = LOCAL_TIME ( 15, 41, 2.000000000000000000, #63 ) ;
#231 = ORIENTED_EDGE ( 'NONE', *, *, #238, .T. ) ;
#232 = ORIENTED_EDGE ( 'NONE', *, *, #207, .T. ) ;
#233 = FACE_OUTER_BOUND ( 'NONE', #129, .T. ) ;
#234 = FACE_OUTER_BOUND ( 'NONE', #38, .T. ) ;
#235 = DIRECTION ( 'NONE',  ( -4.275831445896958607E-31, -1.000000000000000000, -1.224646799147353207E-16 ) ) ;
#236 = FACE_OUTER_BOUND ( 'NONE', #259, .T. ) ;
#237 = DIRECTION ( 'NONE',  ( 0.000000000000000000, 1.000000000000000000, 0.000000000000000000 ) ) ;
#238 = EDGE_CURVE ( 'NONE', #42, #42, #100, .T. ) ;
#239 = CONICAL_SURFACE ( 'NONE', #123, 4.000000000000000000, 0.7853981633974497223 ) ;
#240 = CARTESIAN_POINT ( 'NONE',  ( 2.286920276942252663E-13, -8.021436534415164826E-15, 65.50000000000000000 ) ) ;
#241 = LOCAL_TIME ( 15, 41, 2.000000000000000000, #27 ) ;
#242 = EDGE_LOOP ( 'NONE', ( #29 ) ) ;
#243 = MANIFOLD_SOLID_BREP ( 'Corps-Déplacer/Copier1[1]', #229 ) ;
#244 = ORIENTED_EDGE ( 'NONE', *, *, #217, .T. ) ;
#245 = MANIFOLD_SOLID_BREP ( 'Corps-Déplacer/Copier1[2]', #99 ) ;
#246 = DIRECTION ( 'NONE',  ( 3.491481338843133355E-15, -0.000000000000000000, 1.000000000000000000 ) ) ;
#247 = PERSON_AND_ORGANIZATION_ROLE ( 'classification_officer' ) ;
#248 = AXIS2_PLACEMENT_3D ( 'NONE', #23, #182, #263 ) ;
#249 = APPROVAL_ROLE ( '' ) ;
#250 = ADVANCED_FACE ( 'NONE', ( #106, #120 ), #96, .T. ) ;
#251 = EDGE_CURVE ( 'NONE', #73, #73, #55, .T. ) ;
#252 = AXIS2_PLACEMENT_3D ( 'NONE', #113, #21, #237 ) ;
#253 = DIRECTION ( 'NONE',  ( 3.491481338843133355E-15, -0.000000000000000000, 1.000000000000000000 ) ) ;
#254 = ORIENTED_EDGE ( 'NONE', *, *, #227, .F. ) ;
#255 = CARTESIAN_POINT ( 'NONE',  ( 3.142333204958819389E-14, 2.249639673992785317E-32, 8.999999999999998224 ) ) ;
#256 = CARTESIAN_POINT ( 'NONE',  ( 2.199999999999999734, 0.000000000000000000, -9.415982421431700476E-15 ) ) ;
#257 = ORIENTED_EDGE ( 'NONE', *, *, #125, .F. ) ;
#258 =( NAMED_UNIT ( * ) SI_UNIT ( $, .STERADIAN. ) SOLID_ANGLE_UNIT ( ) );
#259 = EDGE_LOOP ( 'NONE', ( #139 ) ) ;
#260 =( LENGTH_UNIT ( ) NAMED_UNIT ( * ) SI_UNIT ( .MILLI., .METRE. ) );
#261 = CARTESIAN_POINT ( 'NONE',  ( 2.793185071074501951E-15, 0.000000000000000000, 0.7999999999999986011 ) ) ;
#262 = CARTESIAN_POINT ( 'NONE',  ( -6.413747168845438786E-31, 2.249639673992786412E-32, -1.836970198721029934E-16 ) ) ;
#263 = DIRECTION ( 'NONE',  ( 0.000000000000000000, 1.000000000000000000, 0.000000000000000000 ) ) ;
ENDSEC;
END-ISO-10303-21;
