ISO-10303-21;
HEADER;
FILE_DESCRIPTION (( 'STEP AP203' ),
    '1' );
FILE_NAME ('56644.step',
    '2021-11-18T08:13:05',
    ( '' ),
    ( '' ),
    'SwSTEP 2.0',
    'SolidWorks 2019',
    '' );
FILE_SCHEMA (( 'CONFIG_CONTROL_DESIGN' ));
ENDSEC;

DATA;
#1 = SECURITY_CLASSIFICATION_LEVEL ( 'unclassified' ) ;
#2 = CARTESIAN_POINT ( 'NONE',  ( 1.972686956446370535E-13, -6.919254415182545337E-15, 56.50000000000000000 ) ) ;
#3 = COORDINATED_UNIVERSAL_TIME_OFFSET ( 1, 0, .AHEAD. ) ;
#4 = ORIENTED_EDGE ( 'NONE', *, *, #147, .T. ) ;
#5 = PRODUCT_DEFINITION ( 'UNKNOWN', '', #104, #84 ) ;
#6 = DIRECTION ( 'NONE',  ( -3.491481338843133355E-15, 1.224646799147353207E-16, -1.000000000000000000 ) ) ;
#7 = AXIS2_PLACEMENT_3D ( 'NONE', #207, #113, #46 ) ;
#8 = CARTESIAN_POINT ( 'NONE',  ( 0.0000000000000000000, 0.0000000000000000000, 0.0000000000000000000 ) ) ;
#9 = CARTESIAN_POINT ( 'NONE',  ( 2.094888803305880013E-14, -7.388876495673204343E-16, 6.000000000000000000 ) ) ;
#10 = DIRECTION ( 'NONE',  ( 3.491481338843133355E-15, -1.231479415945534057E-16, 1.000000000000000000 ) ) ;
#11 = DIRECTION ( 'NONE',  ( 0.0000000000000000000, 1.000000000000000000, 0.0000000000000000000 ) ) ;
#12 = CALENDAR_DATE ( 2021, 18, 11 ) ;
#13 = CARTESIAN_POINT ( 'NONE',  ( 1.972686956446370535E-13, 2.999999999999988898, 56.50000000000000000 ) ) ;
#14 = AXIS2_PLACEMENT_3D ( 'NONE', #114, #73, #194 ) ;
#15 = APPLICATION_PROTOCOL_DEFINITION ( 'international standard', 'config_control_design', 1994, #31 ) ;
#16 = SECURITY_CLASSIFICATION ( '', '', #1 ) ;
#17 = DATE_AND_TIME ( #199, #33 ) ;
#18 = EDGE_LOOP ( 'NONE', ( #40 ) ) ;
#19 = CC_DESIGN_PERSON_AND_ORGANIZATION_ASSIGNMENT ( #159, #240, ( #16 ) ) ;
#20 = APPROVAL_ROLE ( '' ) ;
#21 = EDGE_CURVE ( 'NONE', #235, #235, #172, .T. ) ;
#22 = EDGE_LOOP ( 'NONE', ( #223 ) ) ;
#23 = CARTESIAN_POINT ( 'NONE',  ( 2.094888803305880013E-14, 2.249639673992785317E-32, 6.000000000000000000 ) ) ;
#24 = ADVANCED_BREP_SHAPE_REPRESENTATION ( '56644', ( #89, #168, #242 ), #39 ) ;
#25 = DIRECTION ( 'NONE',  ( 3.491481338843133355E-15, -1.231479415945534057E-16, 1.000000000000000000 ) ) ;
#26 = DIRECTION ( 'NONE',  ( -4.299687399943272737E-31, -1.000000000000000000, -1.231479415945534057E-16 ) ) ;
#27 = DIRECTION ( 'NONE',  ( 3.491481338843133355E-15, -1.231479415945534057E-16, 1.000000000000000000 ) ) ;
#28 = CARTESIAN_POINT ( 'NONE',  ( 4.713499807438230030E-14, -1.662497211526470903E-15, 13.50000000000000000 ) ) ;
#29 = DIRECTION ( 'NONE',  ( 1.000000000000000000, 0.0000000000000000000, 0.0000000000000000000 ) ) ;
#30 = VERTEX_POINT ( 'NONE', #77 ) ;
#31 = APPLICATION_CONTEXT ( 'configuration controlled 3d designs of mechanical parts and assemblies' ) ;
#32 = CARTESIAN_POINT ( 'NONE',  ( -3.210451977529666731E-30, 1.132357627756763352E-31, -9.195099918802421068E-16 ) ) ;
#33 = LOCAL_TIME ( 9, 13, 5.000000000000000000, #3 ) ;
#34 = PERSON_AND_ORGANIZATION ( #251, #212 ) ;
#35 = DIRECTION ( 'NONE',  ( 4.275831445896958607E-31, 1.000000000000000000, 1.224646799147353207E-16 ) ) ;
#36 = CALENDAR_DATE ( 2021, 18, 11 ) ;
#37 = AXIS2_PLACEMENT_3D ( 'NONE', #217, #259, #35 ) ;
#38 = APPROVAL_STATUS ( 'not_yet_approved' ) ;
#39 =( GEOMETRIC_REPRESENTATION_CONTEXT ( 3 ) GLOBAL_UNCERTAINTY_ASSIGNED_CONTEXT ( ( #218 ) ) GLOBAL_UNIT_ASSIGNED_CONTEXT ( ( #234, #75, #55 ) ) REPRESENTATION_CONTEXT ( 'NONE', 'WORKASPACE' ) );
#40 = ORIENTED_EDGE ( 'NONE', *, *, #237, .T. ) ;
#41 = ORIENTED_EDGE ( 'NONE', *, *, #164, .T. ) ;
#42 = COORDINATED_UNIVERSAL_TIME_OFFSET ( 1, 0, .AHEAD. ) ;
#43 = CARTESIAN_POINT ( 'NONE',  ( 1.990144363140585886E-13, -6.980486755139912911E-15, 56.99999999999999289 ) ) ;
#44 = ADVANCED_FACE ( 'NONE', ( #185, #86 ), #262, .T. ) ;
#45 = CARTESIAN_POINT ( 'NONE',  ( 1.745740669421562931E-15, -6.157397079727657960E-17, 0.4999999999999989453 ) ) ;
#46 = DIRECTION ( 'NONE',  ( 0.0000000000000000000, 1.000000000000000000, 0.0000000000000000000 ) ) ;
#47 = CC_DESIGN_APPROVAL ( #70, ( #16 ) ) ;
#48 = CARTESIAN_POINT ( 'NONE',  ( 0.0000000000000000000, 0.0000000000000000000, 0.0000000000000000000 ) ) ;
#49 = FACE_OUTER_BOUND ( 'NONE', #144, .T. ) ;
#50 = CC_DESIGN_PERSON_AND_ORGANIZATION_ASSIGNMENT ( #51, #138, ( #243 ) ) ;
#51 = PERSON_AND_ORGANIZATION ( #251, #212 ) ;
#52 = AXIS2_PLACEMENT_3D ( 'NONE', #175, #205, #213 ) ;
#53 = VERTEX_POINT ( 'NONE', #81 ) ;
#54 = EDGE_CURVE ( 'NONE', #155, #155, #232, .T. ) ;
#55 =( NAMED_UNIT ( * ) SI_UNIT ( $, .STERADIAN. ) SOLID_ANGLE_UNIT ( ) );
#56 = AXIS2_PLACEMENT_3D ( 'NONE', #93, #250, #72 ) ;
#57 = CC_DESIGN_APPROVAL ( #82, ( #104 ) ) ;
#58 = DIRECTION ( 'NONE',  ( 3.491481338843133355E-15, -1.231479415945534057E-16, 1.000000000000000000 ) ) ;
#59 = CC_DESIGN_PERSON_AND_ORGANIZATION_ASSIGNMENT ( #158, #245, ( #104 ) ) ;
#60 = DATE_AND_TIME ( #36, #85 ) ;
#61 = EDGE_LOOP ( 'NONE', ( #4 ) ) ;
#62 = AXIS2_PLACEMENT_3D ( 'NONE', #28, #10, #150 ) ;
#63 = PERSON_AND_ORGANIZATION ( #251, #212 ) ;
#64 = EDGE_LOOP ( 'NONE', ( #66 ) ) ;
#65 = ORIENTED_EDGE ( 'NONE', *, *, #224, .T. ) ;
#66 = ORIENTED_EDGE ( 'NONE', *, *, #263, .F. ) ;
#67 = ORIENTED_EDGE ( 'NONE', *, *, #21, .F. ) ;
#68 = PRODUCT_DEFINITION_SHAPE ( 'NONE', 'NONE',  #5 ) ;
#69 = DIRECTION ( 'NONE',  ( -4.299687399943272737E-31, -1.000000000000000000, -1.231479415945534057E-16 ) ) ;
#70 = APPROVAL ( #188, 'UNSPECIFIED' ) ;
#71 = PLANE ( 'NONE',  #14 ) ;
#72 = DIRECTION ( 'NONE',  ( -4.366075635951423044E-31, -1.000000000000000000, -1.231479415945534057E-16 ) ) ;
#73 = DIRECTION ( 'NONE',  ( -3.491481338843133355E-15, 1.224646799147353207E-16, -1.000000000000000000 ) ) ;
#74 = ADVANCED_FACE ( 'NONE', ( #252 ), #95, .F. ) ;
#75 =( NAMED_UNIT ( * ) PLANE_ANGLE_UNIT ( ) SI_UNIT ( $, .RADIAN. ) );
#76 = LOCAL_TIME ( 9, 13, 5.000000000000000000, #137 ) ;
#77 = CARTESIAN_POINT ( 'NONE',  ( 1.990144363140585886E-13, 2.499999999999992006, 56.99999999999999289 ) ) ;
#78 = APPROVAL_DATE_TIME ( #258, #219 ) ;
#79 = PERSON_AND_ORGANIZATION_ROLE ( 'creator' ) ;
#80 = AXIS2_PLACEMENT_3D ( 'NONE', #8, #91, #69 ) ;
#81 = CARTESIAN_POINT ( 'NONE',  ( -3.855405087521157948E-30, -1.500000000000000000, -1.104231904272072141E-15 ) ) ;
#82 = APPROVAL ( #38, 'UNSPECIFIED' ) ;
#83 = PERSON_AND_ORGANIZATION ( #251, #212 ) ;
#84 = DESIGN_CONTEXT ( 'detailed design', #31, 'design' ) ;
#85 = LOCAL_TIME ( 9, 13, 5.000000000000000000, #121 ) ;
#86 = FACE_OUTER_BOUND ( 'NONE', #122, .T. ) ;
#87 = CALENDAR_DATE ( 2021, 18, 11 ) ;
#88 = ORIENTED_EDGE ( 'NONE', *, *, #147, .F. ) ;
#89 = MANIFOLD_SOLID_BREP ( 'Corps-Déplacer/Copier1[1]', #211 ) ;
#90 = EDGE_LOOP ( 'NONE', ( #67 ) ) ;
#91 = DIRECTION ( 'NONE',  ( 3.491481338843133355E-15, -1.231479415945534057E-16, 1.000000000000000000 ) ) ;
#92 = CLOSED_SHELL ( 'NONE', ( #156, #140, #214, #99 ) ) ;
#93 = CARTESIAN_POINT ( 'NONE',  ( 1.745740669421563325E-15, 0.0000000000000000000, 0.4999999999999990563 ) ) ;
#94 = FACE_OUTER_BOUND ( 'NONE', #64, .T. ) ;
#95 = PLANE ( 'NONE',  #132 ) ;
#96 = CIRCLE ( 'NONE', #183, 2.000000000000001776 ) ;
#97 = FACE_OUTER_BOUND ( 'NONE', #226, .T. ) ;
#98 = DATE_AND_TIME ( #12, #222 ) ;
#99 = ADVANCED_FACE ( 'NONE', ( #94 ), #71, .T. ) ;
#100 = CARTESIAN_POINT ( 'NONE',  ( 4.713499807438230030E-14, -1.850000000000002753, 13.50000000000000000 ) ) ;
#101 = APPROVAL_ROLE ( '' ) ;
#102 = CARTESIAN_POINT ( 'NONE',  ( 2.094888803305880013E-14, -2.000000000000002665, 6.000000000000000000 ) ) ;
#103 = AXIS2_PLACEMENT_3D ( 'NONE', #9, #25, #109 ) ;
#104 = PRODUCT_DEFINITION_FORMATION_WITH_SPECIFIED_SOURCE ( 'ANY', '', #243, .NOT_KNOWN. ) ;
#105 = EDGE_LOOP ( 'NONE', ( #160 ) ) ;
#106 = AXIS2_PLACEMENT_3D ( 'NONE', #244, #208, #26 ) ;
#107 = EDGE_LOOP ( 'NONE', ( #146 ) ) ;
#108 = APPROVAL_ROLE ( '' ) ;
#109 = DIRECTION ( 'NONE',  ( 0.0000000000000000000, -1.000000000000000000, 0.0000000000000000000 ) ) ;
#110 = CARTESIAN_POINT ( 'NONE',  ( 6.156352094478165076E-14, -2.243631506494408494E-15, 17.63249319418676819 ) ) ;
#111 = APPROVAL_PERSON_ORGANIZATION ( #127, #82, #108 ) ;
#112 = CYLINDRICAL_SURFACE ( 'NONE', #80, 2.000000000000000888 ) ;
#113 = DIRECTION ( 'NONE',  ( -3.491481338843133355E-15, 1.224646799147353207E-16, -1.000000000000000000 ) ) ;
#114 = CARTESIAN_POINT ( 'NONE',  ( -6.413747168845438786E-31, 2.249639673992786412E-32, -1.836970198721029934E-16 ) ) ;
#115 = AXIS2_PLACEMENT_3D ( 'NONE', #43, #192, #11 ) ;
#116 = PERSON_AND_ORGANIZATION ( #251, #212 ) ;
#117 = VERTEX_POINT ( 'NONE', #154 ) ;
#118 = TOROIDAL_SURFACE ( 'NONE', #56, 1.500000000000000000, 0.5000000000000000000 ) ;
#119 = CARTESIAN_POINT ( 'NONE',  ( 2.094888803305880013E-14, -1.850000000000000977, 6.000000000000000000 ) ) ;
#120 = VERTEX_POINT ( 'NONE', #119 ) ;
#121 = COORDINATED_UNIVERSAL_TIME_OFFSET ( 1, 0, .AHEAD. ) ;
#122 = EDGE_LOOP ( 'NONE', ( #221 ) ) ;
#123 = CONICAL_SURFACE ( 'NONE', #7, 2.999999999999995559, 0.7853981633974518317 ) ;
#124 = DIRECTION ( 'NONE',  ( -3.491481338843133355E-15, 1.224646799147353207E-16, -1.000000000000000000 ) ) ;
#125 = PERSON_AND_ORGANIZATION_ROLE ( 'creator' ) ;
#126 = ORIENTED_EDGE ( 'NONE', *, *, #21, .T. ) ;
#127 = PERSON_AND_ORGANIZATION ( #251, #212 ) ;
#128 = AXIS2_PLACEMENT_3D ( 'NONE', #2, #124, #200 ) ;
#129 = CC_DESIGN_DATE_AND_TIME_ASSIGNMENT ( #98, #255, ( #5 ) ) ;
#130 = DIRECTION ( 'NONE',  ( 3.491481338843133355E-15, -1.224646799147353207E-16, 1.000000000000000000 ) ) ;
#131 = FACE_OUTER_BOUND ( 'NONE', #141, .T. ) ;
#132 = AXIS2_PLACEMENT_3D ( 'NONE', #23, #130, #249 ) ;
#133 = FACE_OUTER_BOUND ( 'NONE', #201, .T. ) ;
#134 = ADVANCED_FACE ( 'NONE', ( #231, #173 ), #229, .T. ) ;
#135 = CARTESIAN_POINT ( 'NONE',  ( 2.094888803305880013E-14, 2.249639673992785317E-32, 6.000000000000000000 ) ) ;
#136 = DIRECTION ( 'NONE',  ( 4.275831445896958607E-31, 1.000000000000000000, 1.224646799147353454E-16 ) ) ;
#137 = COORDINATED_UNIVERSAL_TIME_OFFSET ( 1, 0, .AHEAD. ) ;
#138 = PERSON_AND_ORGANIZATION_ROLE ( 'design_owner' ) ;
#139 = DIRECTION ( 'NONE',  ( 0.0000000000000000000, 0.0000000000000000000, 1.000000000000000000 ) ) ;
#140 = ADVANCED_FACE ( 'NONE', ( #131, #170 ), #118, .T. ) ;
#141 = EDGE_LOOP ( 'NONE', ( #198 ) ) ;
#142 = CIRCLE ( 'NONE', #216, 2.999999999999997780 ) ;
#143 = CC_DESIGN_SECURITY_CLASSIFICATION ( #16, ( #104 ) ) ;
#144 = EDGE_LOOP ( 'NONE', ( #65 ) ) ;
#145 = ORIENTED_EDGE ( 'NONE', *, *, #230, .F. ) ;
#146 = ORIENTED_EDGE ( 'NONE', *, *, #164, .F. ) ;
#147 = EDGE_CURVE ( 'NONE', #182, #182, #142, .T. ) ;
#148 = CIRCLE ( 'NONE', #103, 1.850000000000000311 ) ;
#149 = DIRECTION ( 'NONE',  ( 3.491481338843133355E-15, -1.224646799147353207E-16, 1.000000000000000000 ) ) ;
#150 = DIRECTION ( 'NONE',  ( 0.0000000000000000000, -1.000000000000000000, 0.0000000000000000000 ) ) ;
#151 = FACE_OUTER_BOUND ( 'NONE', #90, .T. ) ;
#152 = DIRECTION ( 'NONE',  ( 0.0000000000000000000, -1.000000000000000000, 0.0000000000000000000 ) ) ;
#153 = PRODUCT_RELATED_PRODUCT_CATEGORY ( 'detail', '', ( #243 ) ) ;
#154 = CARTESIAN_POINT ( 'NONE',  ( 1.745740669421562142E-15, -2.000000000000000000, 0.4999999999999987232 ) ) ;
#155 = VERTEX_POINT ( 'NONE', #100 ) ;
#156 = ADVANCED_FACE ( 'NONE', ( #133 ), #167, .T. ) ;
#157 = CIRCLE ( 'NONE', #225, 2.000000000000000000 ) ;
#158 = PERSON_AND_ORGANIZATION ( #251, #212 ) ;
#159 = PERSON_AND_ORGANIZATION ( #251, #212 ) ;
#160 = ORIENTED_EDGE ( 'NONE', *, *, #230, .T. ) ;
#161 = AXIS2_PLACEMENT_3D ( 'NONE', #48, #6, #136 ) ;
#162 = APPROVAL_PERSON_ORGANIZATION ( #34, #219, #101 ) ;
#163 = EDGE_LOOP ( 'NONE', ( #204 ) ) ;
#164 = EDGE_CURVE ( 'NONE', #178, #178, #96, .T. ) ;
#165 = ORIENTED_EDGE ( 'NONE', *, *, #237, .F. ) ;
#166 = LOCAL_TIME ( 9, 13, 5.000000000000000000, #42 ) ;
#167 = PLANE ( 'NONE',  #202 ) ;
#168 = MANIFOLD_SOLID_BREP ( 'Corps-Déplacer/Copier1[2]', #92 ) ;
#169 = DIRECTION ( 'NONE',  ( 3.491481338843133355E-15, -1.231479415945534057E-16, 1.000000000000000000 ) ) ;
#170 = FACE_OUTER_BOUND ( 'NONE', #163, .T. ) ;
#171 = APPLICATION_CONTEXT ( 'configuration controlled 3d designs of mechanical parts and assemblies' ) ;
#172 = CIRCLE ( 'NONE', #128, 2.999999999999995559 ) ;
#173 = FACE_OUTER_BOUND ( 'NONE', #61, .T. ) ;
#174 = CC_DESIGN_APPROVAL ( #219, ( #5 ) ) ;
#175 = CARTESIAN_POINT ( 'NONE',  ( 4.713499807438230030E-14, -1.734723475976807094E-15, 13.50000000000000000 ) ) ;
#176 = CC_DESIGN_PERSON_AND_ORGANIZATION_ASSIGNMENT ( #116, #79, ( #5 ) ) ;
#177 = CARTESIAN_POINT ( 'NONE',  ( 0.0000000000000000000, 0.0000000000000000000, 0.0000000000000000000 ) ) ;
#178 = VERTEX_POINT ( 'NONE', #102 ) ;
#179 = CIRCLE ( 'NONE', #115, 2.499999999999998668 ) ;
#180 = CALENDAR_DATE ( 2021, 18, 11 ) ;
#181 = APPROVAL_STATUS ( 'not_yet_approved' ) ;
#182 = VERTEX_POINT ( 'NONE', #261 ) ;
#183 = AXIS2_PLACEMENT_3D ( 'NONE', #228, #27, #152 ) ;
#184 = APPROVAL_DATE_TIME ( #17, #82 ) ;
#185 = FACE_OUTER_BOUND ( 'NONE', #18, .T. ) ;
#186 = APPROVAL_DATE_TIME ( #60, #70 ) ;
#187 = EDGE_LOOP ( 'NONE', ( #88 ) ) ;
#188 = APPROVAL_STATUS ( 'not_yet_approved' ) ;
#189 = FACE_OUTER_BOUND ( 'NONE', #187, .T. ) ;
#190 = CIRCLE ( 'NONE', #203, 1.500000000000000000 ) ;
#191 = DIRECTION ( 'NONE',  ( 3.491481338843133355E-15, -1.231479415945534057E-16, 1.000000000000000000 ) ) ;
#192 = DIRECTION ( 'NONE',  ( -3.491481338843133355E-15, 1.224646799147353207E-16, -1.000000000000000000 ) ) ;
#193 = FACE_OUTER_BOUND ( 'NONE', #22, .T. ) ;
#194 = DIRECTION ( 'NONE',  ( 4.275831445896958607E-31, 1.000000000000000000, 1.224646799147353207E-16 ) ) ;
#195 = COORDINATED_UNIVERSAL_TIME_OFFSET ( 1, 0, .AHEAD. ) ;
#196 = DIRECTION ( 'NONE',  ( -4.299687399943272737E-31, -1.000000000000000000, -1.231479415945533811E-16 ) ) ;
#197 = SHAPE_DEFINITION_REPRESENTATION ( #68, #24 ) ;
#198 = ORIENTED_EDGE ( 'NONE', *, *, #263, .T. ) ;
#199 = CALENDAR_DATE ( 2021, 18, 11 ) ;
#200 = DIRECTION ( 'NONE',  ( 0.0000000000000000000, 1.000000000000000000, 0.0000000000000000000 ) ) ;
#201 = EDGE_LOOP ( 'NONE', ( #41 ) ) ;
#202 = AXIS2_PLACEMENT_3D ( 'NONE', #135, #149, #253 ) ;
#203 = AXIS2_PLACEMENT_3D ( 'NONE', #32, #58, #196 ) ;
#204 = ORIENTED_EDGE ( 'NONE', *, *, #224, .F. ) ;
#205 = DIRECTION ( 'NONE',  ( 3.491481338843133355E-15, -1.231479415945534057E-16, 1.000000000000000000 ) ) ;
#206 = FACE_OUTER_BOUND ( 'NONE', #107, .T. ) ;
#207 = CARTESIAN_POINT ( 'NONE',  ( 1.972686956446370535E-13, -6.919254415182545337E-15, 56.50000000000000000 ) ) ;
#208 = DIRECTION ( 'NONE',  ( 3.491481338843133355E-15, -1.231479415945534057E-16, 1.000000000000000000 ) ) ;
#209 = ADVANCED_FACE ( 'NONE', ( #227, #151 ), #123, .T. ) ;
#210 = DIRECTION ( 'NONE',  ( -3.851859888774471706E-31, -1.000000000000000000, -1.084202172485504434E-16 ) ) ;
#211 = CLOSED_SHELL ( 'NONE', ( #134, #209, #260, #44, #254, #74 ) ) ;
#212 = ORGANIZATION ( 'UNSPECIFIED', 'UNSPECIFIED', '' ) ;
#213 = DIRECTION ( 'NONE',  ( -4.359195062471585992E-31, -1.000000000000000000, -1.231479415945534057E-16 ) ) ;
#214 = ADVANCED_FACE ( 'NONE', ( #49, #206 ), #112, .T. ) ;
#215 = APPLICATION_PROTOCOL_DEFINITION ( 'international standard', 'config_control_design', 1994, #171 ) ;
#216 = AXIS2_PLACEMENT_3D ( 'NONE', #110, #191, #248 ) ;
#217 = CARTESIAN_POINT ( 'NONE',  ( 1.990144363140585886E-13, 8.685164181875800873E-31, 56.99999999999999289 ) ) ;
#218 = UNCERTAINTY_MEASURE_WITH_UNIT (LENGTH_MEASURE( 1.000000000000000082E-05 ), #234, 'distance_accuracy_value', 'NONE');
#219 = APPROVAL ( #181, 'UNSPECIFIED' ) ;
#220 = DATE_AND_TIME ( #87, #166 ) ;
#221 = ORIENTED_EDGE ( 'NONE', *, *, #54, .F. ) ;
#222 = LOCAL_TIME ( 9, 13, 5.000000000000000000, #195 ) ;
#223 = ORIENTED_EDGE ( 'NONE', *, *, #54, .T. ) ;
#224 = EDGE_CURVE ( 'NONE', #117, #117, #157, .T. ) ;
#225 = AXIS2_PLACEMENT_3D ( 'NONE', #45, #169, #210 ) ;
#226 = EDGE_LOOP ( 'NONE', ( #145 ) ) ;
#227 = FACE_BOUND ( 'NONE', #105, .T. ) ;
#228 = CARTESIAN_POINT ( 'NONE',  ( 2.094888803305880013E-14, -7.388876495673204343E-16, 6.000000000000000000 ) ) ;
#229 = CYLINDRICAL_SURFACE ( 'NONE', #161, 2.999999999999997780 ) ;
#230 = EDGE_CURVE ( 'NONE', #30, #30, #179, .T. ) ;
#231 = FACE_OUTER_BOUND ( 'NONE', #241, .T. ) ;
#232 = CIRCLE ( 'NONE', #62, 1.850000000000000977 ) ;
#233 = MECHANICAL_CONTEXT ( 'NONE', #171, 'mechanical' ) ;
#234 =( LENGTH_UNIT ( ) NAMED_UNIT ( * ) SI_UNIT ( .MILLI., .METRE. ) );
#235 = VERTEX_POINT ( 'NONE', #13 ) ;
#236 = APPROVAL_PERSON_ORGANIZATION ( #63, #70, #20 ) ;
#237 = EDGE_CURVE ( 'NONE', #120, #120, #148, .T. ) ;
#238 = DATE_TIME_ROLE ( 'classification_date' ) ;
#239 = EDGE_LOOP ( 'NONE', ( #165 ) ) ;
#240 = PERSON_AND_ORGANIZATION_ROLE ( 'classification_officer' ) ;
#241 = EDGE_LOOP ( 'NONE', ( #126 ) ) ;
#242 = AXIS2_PLACEMENT_3D ( 'NONE', #177, #139, #29 ) ;
#243 = PRODUCT ( '56644', '56644', '', ( #233 ) ) ;
#244 = CARTESIAN_POINT ( 'NONE',  ( 0.0000000000000000000, 0.0000000000000000000, 0.0000000000000000000 ) ) ;
#245 = PERSON_AND_ORGANIZATION_ROLE ( 'design_supplier' ) ;
#246 = CC_DESIGN_DATE_AND_TIME_ASSIGNMENT ( #220, #238, ( #16 ) ) ;
#247 = TOROIDAL_SURFACE ( 'NONE', #52, 9.849999999999999645, 7.999999999999998224 ) ;
#248 = DIRECTION ( 'NONE',  ( 0.0000000000000000000, 1.000000000000000000, 0.0000000000000000000 ) ) ;
#249 = DIRECTION ( 'NONE',  ( -4.275831445896958607E-31, -1.000000000000000000, -1.224646799147353207E-16 ) ) ;
#250 = DIRECTION ( 'NONE',  ( 3.491481338843133355E-15, -1.231479415945534057E-16, 1.000000000000000000 ) ) ;
#251 = PERSON ( 'UNSPECIFIED', 'UNSPECIFIED', 'UNSPECIFIED', ('UNSPECIFIED'), ('UNSPECIFIED'), ('UNSPECIFIED') ) ;
#252 = FACE_OUTER_BOUND ( 'NONE', #239, .T. ) ;
#253 = DIRECTION ( 'NONE',  ( -4.275831445896958607E-31, -1.000000000000000000, -1.224646799147353207E-16 ) ) ;
#254 = ADVANCED_FACE ( 'NONE', ( #189, #193 ), #247, .F. ) ;
#255 = DATE_TIME_ROLE ( 'creation_date' ) ;
#256 = CC_DESIGN_PERSON_AND_ORGANIZATION_ASSIGNMENT ( #83, #125, ( #104 ) ) ;
#257 = PLANE ( 'NONE',  #37 ) ;
#258 = DATE_AND_TIME ( #180, #76 ) ;
#259 = DIRECTION ( 'NONE',  ( -3.491481338843133355E-15, 1.224646799147353207E-16, -1.000000000000000000 ) ) ;
#260 = ADVANCED_FACE ( 'NONE', ( #97 ), #257, .F. ) ;
#261 = CARTESIAN_POINT ( 'NONE',  ( 6.156352094478165076E-14, 2.999999999999995559, 17.63249319418676819 ) ) ;
#262 = CYLINDRICAL_SURFACE ( 'NONE', #106, 1.850000000000000533 ) ;
#263 = EDGE_CURVE ( 'NONE', #53, #53, #190, .T. ) ;
ENDSEC;
END-ISO-10303-21;
