ISO-10303-21;
HEADER;
FILE_DESCRIPTION (( 'STEP AP203' ),
    '1' );
FILE_NAME ('56643.step',
    '2021-11-18T08:13:05',
    ( '' ),
    ( '' ),
    'SwSTEP 2.0',
    'SolidWorks 2019',
    '' );
FILE_SCHEMA (( 'CONFIG_CONTROL_DESIGN' ));
ENDSEC;

DATA;
#1 = PERSON_AND_ORGANIZATION_ROLE ( 'design_owner' ) ;
#2 = PERSON_AND_ORGANIZATION_ROLE ( 'design_supplier' ) ;
#3 = COORDINATED_UNIVERSAL_TIME_OFFSET ( 1, 0, .AHEAD. ) ;
#4 = COORDINATED_UNIVERSAL_TIME_OFFSET ( 1, 0, .AHEAD. ) ;
#5 = CIRCLE ( 'NONE', #84, 2.999999999999995559 ) ;
#6 = EDGE_LOOP ( 'NONE', ( #228 ) ) ;
#7 = CC_DESIGN_APPROVAL ( #159, ( #166 ) ) ;
#8 = ORIENTED_EDGE ( 'NONE', *, *, #136, .T. ) ;
#9 = ADVANCED_FACE ( 'NONE', ( #110, #130 ), #42, .F. ) ;
#10 = APPROVAL_DATE_TIME ( #39, #46 ) ;
#11 = FACE_OUTER_BOUND ( 'NONE', #150, .T. ) ;
#12 = CLOSED_SHELL ( 'NONE', ( #129, #245, #233, #205, #9, #82 ) ) ;
#13 = DIRECTION ( 'NONE',  ( -4.299687399943275364E-31, -1.000000000000000000, -1.231479415945534797E-16 ) ) ;
#14 = PRODUCT_RELATED_PRODUCT_CATEGORY ( 'detail', '', ( #213 ) ) ;
#15 = CYLINDRICAL_SURFACE ( 'NONE', #225, 1.375000000000000888 ) ;
#16 = DIRECTION ( 'NONE',  ( 3.491481338843133355E-15, -1.231479415945534057E-16, 1.000000000000000000 ) ) ;
#17 = CARTESIAN_POINT ( 'NONE',  ( 1.990144363140585886E-13, 8.685164181875800873E-31, 56.99999999999999289 ) ) ;
#18 = CC_DESIGN_PERSON_AND_ORGANIZATION_ASSIGNMENT ( #61, #221, ( #122 ) ) ;
#19 = DIRECTION ( 'NONE',  ( 3.491481338843133355E-15, -1.231479415945534057E-16, 1.000000000000000000 ) ) ;
#20 = VERTEX_POINT ( 'NONE', #37 ) ;
#21 = CIRCLE ( 'NONE', #151, 1.000000000000000000 ) ;
#22 = PERSON_AND_ORGANIZATION ( #223, #25 ) ;
#23 = CC_DESIGN_PERSON_AND_ORGANIZATION_ASSIGNMENT ( #163, #246, ( #191 ) ) ;
#24 = CALENDAR_DATE ( 2021, 18, 11 ) ;
#25 = ORGANIZATION ( 'UNSPECIFIED', 'UNSPECIFIED', '' ) ;
#26 = APPROVAL_STATUS ( 'not_yet_approved' ) ;
#27 = APPROVAL ( #26, 'UNSPECIFIED' ) ;
#28 = AXIS2_PLACEMENT_3D ( 'NONE', #113, #195, #197 ) ;
#29 = DIRECTION ( 'NONE',  ( 0.0000000000000000000, 1.000000000000000000, 0.0000000000000000000 ) ) ;
#30 = ORIENTED_EDGE ( 'NONE', *, *, #108, .T. ) ;
#31 = EDGE_LOOP ( 'NONE', ( #8 ) ) ;
#32 = DIRECTION ( 'NONE',  ( 3.491481338843133355E-15, -1.231479415945534057E-16, 1.000000000000000000 ) ) ;
#33 = DIRECTION ( 'NONE',  ( 4.275831445896958607E-31, 1.000000000000000000, 1.224646799147353207E-16 ) ) ;
#34 = DIRECTION ( 'NONE',  ( -3.491481338843133355E-15, 1.224646799147353207E-16, -1.000000000000000000 ) ) ;
#35 = ADVANCED_BREP_SHAPE_REPRESENTATION ( '56643', ( #90, #182, #102 ), #48 ) ;
#36 = CARTESIAN_POINT ( 'NONE',  ( 1.571166602479410010E-14, -5.541657371754903011E-16, 4.500000000000000000 ) ) ;
#37 = CARTESIAN_POINT ( 'NONE',  ( 5.877264213018667688E-14, 2.999999999999995559, 16.83315373229529754 ) ) ;
#38 = CARTESIAN_POINT ( 'NONE',  ( 5.877264213018667688E-14, -2.329916409519005925E-15, 16.83315373229529754 ) ) ;
#39 = DATE_AND_TIME ( #62, #95 ) ;
#40 = DATE_AND_TIME ( #120, #57 ) ;
#41 = APPLICATION_PROTOCOL_DEFINITION ( 'international standard', 'config_control_design', 1994, #261 ) ;
#42 = TOROIDAL_SURFACE ( 'NONE', #109, 9.375000000000001776, 8.000000000000000000 ) ;
#43 = PERSON_AND_ORGANIZATION ( #223, #25 ) ;
#44 = APPROVAL_PERSON_ORGANIZATION ( #101, #159, #184 ) ;
#45 = ORIENTED_EDGE ( 'NONE', *, *, #180, .T. ) ;
#46 = APPROVAL ( #179, 'UNSPECIFIED' ) ;
#47 = SHAPE_DEFINITION_REPRESENTATION ( #238, #35 ) ;
#48 =( GEOMETRIC_REPRESENTATION_CONTEXT ( 3 ) GLOBAL_UNCERTAINTY_ASSIGNED_CONTEXT ( ( #85 ) ) GLOBAL_UNIT_ASSIGNED_CONTEXT ( ( #164, #220, #181 ) ) REPRESENTATION_CONTEXT ( 'NONE', 'WORKASPACE' ) );
#49 = CARTESIAN_POINT ( 'NONE',  ( 4.189777606611760026E-14, -1.734723475976807094E-15, 12.00000000000000000 ) ) ;
#50 = ORIENTED_EDGE ( 'NONE', *, *, #226, .F. ) ;
#51 = ORIENTED_EDGE ( 'NONE', *, *, #123, .F. ) ;
#52 = EDGE_LOOP ( 'NONE', ( #50 ) ) ;
#53 = CONICAL_SURFACE ( 'NONE', #200, 2.999999999999995559, 0.7853981633974518317 ) ;
#54 = FACE_BOUND ( 'NONE', #250, .T. ) ;
#55 = FACE_OUTER_BOUND ( 'NONE', #171, .T. ) ;
#56 = CARTESIAN_POINT ( 'NONE',  ( 1.972686956446370535E-13, 2.999999999999988898, 56.50000000000000000 ) ) ;
#57 = LOCAL_TIME ( 9, 13, 5.000000000000000000, #119 ) ;
#58 = DIRECTION ( 'NONE',  ( -4.275831445896958607E-31, -1.000000000000000000, -1.224646799147353207E-16 ) ) ;
#59 = DIRECTION ( 'NONE',  ( 0.0000000000000000000, -1.000000000000000000, 0.0000000000000000000 ) ) ;
#60 = APPROVAL_DATE_TIME ( #40, #27 ) ;
#61 = PERSON_AND_ORGANIZATION ( #223, #25 ) ;
#62 = CALENDAR_DATE ( 2021, 18, 11 ) ;
#63 = AXIS2_PLACEMENT_3D ( 'NONE', #98, #258, #58 ) ;
#64 = CARTESIAN_POINT ( 'NONE',  ( -6.413747168845438786E-31, 2.249639673992786412E-32, -1.836970198721029934E-16 ) ) ;
#65 = ORIENTED_EDGE ( 'NONE', *, *, #180, .F. ) ;
#66 = AXIS2_PLACEMENT_3D ( 'NONE', #64, #172, #68 ) ;
#67 = EDGE_LOOP ( 'NONE', ( #124 ) ) ;
#68 = DIRECTION ( 'NONE',  ( 4.275831445896958607E-31, 1.000000000000000000, 1.224646799147353207E-16 ) ) ;
#69 = ORIENTED_EDGE ( 'NONE', *, *, #185, .T. ) ;
#70 = CARTESIAN_POINT ( 'NONE',  ( 1.990144363140585886E-13, 2.499999999999992006, 56.99999999999999289 ) ) ;
#71 = AXIS2_PLACEMENT_3D ( 'NONE', #36, #16, #59 ) ;
#72 = CC_DESIGN_PERSON_AND_ORGANIZATION_ASSIGNMENT ( #224, #2, ( #166 ) ) ;
#73 = DIRECTION ( 'NONE',  ( -4.388205047954138353E-31, -1.000000000000000000, -1.231479415945534057E-16 ) ) ;
#74 = DIRECTION ( 'NONE',  ( 3.491481338843133355E-15, -1.231479415945534057E-16, 1.000000000000000000 ) ) ;
#75 = AXIS2_PLACEMENT_3D ( 'NONE', #106, #208, #210 ) ;
#76 = CC_DESIGN_APPROVAL ( #46, ( #191 ) ) ;
#77 = FACE_OUTER_BOUND ( 'NONE', #251, .T. ) ;
#78 = CC_DESIGN_DATE_AND_TIME_ASSIGNMENT ( #100, #248, ( #191 ) ) ;
#79 = DATE_AND_TIME ( #24, #147 ) ;
#80 = APPLICATION_PROTOCOL_DEFINITION ( 'international standard', 'config_control_design', 1994, #242 ) ;
#81 = DIRECTION ( 'NONE',  ( 1.000000000000000000, 0.0000000000000000000, 0.0000000000000000000 ) ) ;
#82 = ADVANCED_FACE ( 'NONE', ( #234 ), #168, .F. ) ;
#83 = PERSON_AND_ORGANIZATION_ROLE ( 'creator' ) ;
#84 = AXIS2_PLACEMENT_3D ( 'NONE', #93, #34, #96 ) ;
#85 = UNCERTAINTY_MEASURE_WITH_UNIT (LENGTH_MEASURE( 1.000000000000000082E-05 ), #164, 'distance_accuracy_value', 'NONE');
#86 = EDGE_LOOP ( 'NONE', ( #65 ) ) ;
#87 = ORIENTED_EDGE ( 'NONE', *, *, #123, .T. ) ;
#88 = CYLINDRICAL_SURFACE ( 'NONE', #235, 2.999999999999997780 ) ;
#89 = CC_DESIGN_APPROVAL ( #27, ( #122 ) ) ;
#90 = MANIFOLD_SOLID_BREP ( 'Corps-Déplacer/Copier1[1]', #12 ) ;
#91 = DIRECTION ( 'NONE',  ( -3.491481338843133355E-15, 1.224646799147353207E-16, -1.000000000000000000 ) ) ;
#92 = PLANE ( 'NONE',  #66 ) ;
#93 = CARTESIAN_POINT ( 'NONE',  ( 1.972686956446370535E-13, -6.919254415182545337E-15, 56.50000000000000000 ) ) ;
#94 = DIRECTION ( 'NONE',  ( 3.491481338843133355E-15, -1.231479415945534057E-16, 1.000000000000000000 ) ) ;
#95 = LOCAL_TIME ( 9, 13, 5.000000000000000000, #3 ) ;
#96 = DIRECTION ( 'NONE',  ( 0.0000000000000000000, 1.000000000000000000, 0.0000000000000000000 ) ) ;
#97 = CYLINDRICAL_SURFACE ( 'NONE', #28, 1.500000000000000666 ) ;
#98 = CARTESIAN_POINT ( 'NONE',  ( 1.571166602479410010E-14, 2.249639673992785864E-32, 4.500000000000000000 ) ) ;
#99 = AXIS2_PLACEMENT_3D ( 'NONE', #133, #116, #73 ) ;
#100 = DATE_AND_TIME ( #160, #183 ) ;
#101 = PERSON_AND_ORGANIZATION ( #223, #25 ) ;
#102 = AXIS2_PLACEMENT_3D ( 'NONE', #143, #117, #81 ) ;
#103 = APPROVAL_STATUS ( 'not_yet_approved' ) ;
#104 = EDGE_LOOP ( 'NONE', ( #45 ) ) ;
#105 = EDGE_LOOP ( 'NONE', ( #87 ) ) ;
#106 = CARTESIAN_POINT ( 'NONE',  ( 1.571166602479410010E-14, 2.249639673992785864E-32, 4.500000000000000000 ) ) ;
#107 = EDGE_CURVE ( 'NONE', #155, #155, #157, .T. ) ;
#108 = EDGE_CURVE ( 'NONE', #138, #138, #21, .T. ) ;
#109 = AXIS2_PLACEMENT_3D ( 'NONE', #49, #126, #127 ) ;
#110 = FACE_OUTER_BOUND ( 'NONE', #148, .T. ) ;
#111 = FACE_OUTER_BOUND ( 'NONE', #227, .T. ) ;
#112 = CARTESIAN_POINT ( 'NONE',  ( 4.189777606611760026E-14, -1.375000000000002442, 12.00000000000000000 ) ) ;
#113 = CARTESIAN_POINT ( 'NONE',  ( 0.0000000000000000000, 0.0000000000000000000, 0.0000000000000000000 ) ) ;
#114 = ADVANCED_FACE ( 'NONE', ( #111 ), #92, .T. ) ;
#115 = DIRECTION ( 'NONE',  ( -4.299687399943272737E-31, -1.000000000000000000, -1.231479415945534057E-16 ) ) ;
#116 = DIRECTION ( 'NONE',  ( 3.491481338843133355E-15, -1.231479415945534057E-16, 1.000000000000000000 ) ) ;
#117 = DIRECTION ( 'NONE',  ( 0.0000000000000000000, 0.0000000000000000000, 1.000000000000000000 ) ) ;
#118 = CC_DESIGN_PERSON_AND_ORGANIZATION_ASSIGNMENT ( #22, #83, ( #166 ) ) ;
#119 = COORDINATED_UNIVERSAL_TIME_OFFSET ( 1, 0, .AHEAD. ) ;
#120 = CALENDAR_DATE ( 2021, 18, 11 ) ;
#121 = DATE_TIME_ROLE ( 'creation_date' ) ;
#122 = PRODUCT_DEFINITION ( 'UNKNOWN', '', #166, #139 ) ;
#123 = EDGE_CURVE ( 'NONE', #216, #216, #215, .T. ) ;
#124 = ORIENTED_EDGE ( 'NONE', *, *, #226, .T. ) ;
#125 = APPROVAL_PERSON_ORGANIZATION ( #203, #46, #263 ) ;
#126 = DIRECTION ( 'NONE',  ( 3.491481338843133355E-15, -1.231479415945534057E-16, 1.000000000000000000 ) ) ;
#127 = DIRECTION ( 'NONE',  ( -4.360821890655813334E-31, -1.000000000000000000, -1.231479415945534057E-16 ) ) ;
#128 = ORIENTED_EDGE ( 'NONE', *, *, #107, .T. ) ;
#129 = ADVANCED_FACE ( 'NONE', ( #254, #11 ), #88, .T. ) ;
#130 = FACE_OUTER_BOUND ( 'NONE', #67, .T. ) ;
#131 = ADVANCED_FACE ( 'NONE', ( #177, #55 ), #162, .T. ) ;
#132 = DIRECTION ( 'NONE',  ( 0.0000000000000000000, -1.000000000000000000, 0.0000000000000000000 ) ) ;
#133 = CARTESIAN_POINT ( 'NONE',  ( 1.745740669421563719E-15, 0.0000000000000000000, 0.4999999999999991673 ) ) ;
#134 = CARTESIAN_POINT ( 'NONE',  ( 1.571166602479410010E-14, -1.375000000000001332, 4.500000000000000000 ) ) ;
#135 = CLOSED_SHELL ( 'NONE', ( #192, #131, #231, #114 ) ) ;
#136 = EDGE_CURVE ( 'NONE', #217, #217, #5, .T. ) ;
#137 = CARTESIAN_POINT ( 'NONE',  ( 1.745740669421562142E-15, -1.500000000000000000, 0.4999999999999987232 ) ) ;
#138 = VERTEX_POINT ( 'NONE', #239 ) ;
#139 = DESIGN_CONTEXT ( 'detailed design', #242, 'design' ) ;
#140 = CIRCLE ( 'NONE', #71, 1.375000000000000666 ) ;
#141 = APPROVAL_ROLE ( '' ) ;
#142 = PERSON_AND_ORGANIZATION ( #223, #25 ) ;
#143 = CARTESIAN_POINT ( 'NONE',  ( 0.0000000000000000000, 0.0000000000000000000, 0.0000000000000000000 ) ) ;
#144 = ORIENTED_EDGE ( 'NONE', *, *, #185, .F. ) ;
#145 = CC_DESIGN_PERSON_AND_ORGANIZATION_ASSIGNMENT ( #43, #1, ( #213 ) ) ;
#146 = ORIENTED_EDGE ( 'NONE', *, *, #136, .F. ) ;
#147 = LOCAL_TIME ( 9, 13, 5.000000000000000000, #202 ) ;
#148 = EDGE_LOOP ( 'NONE', ( #144 ) ) ;
#149 = DIRECTION ( 'NONE',  ( 3.491481338843133355E-15, -1.231479415945534057E-16, 1.000000000000000000 ) ) ;
#150 = EDGE_LOOP ( 'NONE', ( #69 ) ) ;
#151 = AXIS2_PLACEMENT_3D ( 'NONE', #193, #32, #13 ) ;
#152 = CC_DESIGN_SECURITY_CLASSIFICATION ( #191, ( #166 ) ) ;
#153 = CARTESIAN_POINT ( 'NONE',  ( 1.571166602479410010E-14, -1.500000000000001998, 4.500000000000000000 ) ) ;
#154 = FACE_OUTER_BOUND ( 'NONE', #186, .T. ) ;
#155 = VERTEX_POINT ( 'NONE', #70 ) ;
#156 = DIRECTION ( 'NONE',  ( 0.0000000000000000000, -1.000000000000000000, 0.0000000000000000000 ) ) ;
#157 = CIRCLE ( 'NONE', #219, 2.499999999999998668 ) ;
#158 = CARTESIAN_POINT ( 'NONE',  ( 0.0000000000000000000, 0.0000000000000000000, 0.0000000000000000000 ) ) ;
#159 = APPROVAL ( #103, 'UNSPECIFIED' ) ;
#160 = CALENDAR_DATE ( 2021, 18, 11 ) ;
#161 = CALENDAR_DATE ( 2021, 18, 11 ) ;
#162 = TOROIDAL_SURFACE ( 'NONE', #99, 1.000000000000000444, 0.4999999999999997780 ) ;
#163 = PERSON_AND_ORGANIZATION ( #223, #25 ) ;
#164 =( LENGTH_UNIT ( ) NAMED_UNIT ( * ) SI_UNIT ( .MILLI., .METRE. ) );
#165 = CIRCLE ( 'NONE', #259, 1.375000000000001110 ) ;
#166 = PRODUCT_DEFINITION_FORMATION_WITH_SPECIFIED_SOURCE ( 'ANY', '', #213, .NOT_KNOWN. ) ;
#167 = EDGE_LOOP ( 'NONE', ( #146 ) ) ;
#168 = PLANE ( 'NONE',  #75 ) ;
#169 = ORIENTED_EDGE ( 'NONE', *, *, #187, .F. ) ;
#170 = APPROVAL_PERSON_ORGANIZATION ( #142, #27, #141 ) ;
#171 = EDGE_LOOP ( 'NONE', ( #51 ) ) ;
#172 = DIRECTION ( 'NONE',  ( -3.491481338843133355E-15, 1.224646799147353207E-16, -1.000000000000000000 ) ) ;
#173 = DIRECTION ( 'NONE',  ( -3.491481338843133355E-15, 1.224646799147353207E-16, -1.000000000000000000 ) ) ;
#174 = AXIS2_PLACEMENT_3D ( 'NONE', #38, #94, #212 ) ;
#175 = CARTESIAN_POINT ( 'NONE',  ( 1.571166602479410010E-14, -5.541657371754903011E-16, 4.500000000000000000 ) ) ;
#176 = FACE_OUTER_BOUND ( 'NONE', #167, .T. ) ;
#177 = FACE_OUTER_BOUND ( 'NONE', #232, .T. ) ;
#178 = CARTESIAN_POINT ( 'NONE',  ( 4.189777606611760026E-14, -1.477775299134640869E-15, 12.00000000000000000 ) ) ;
#179 = APPROVAL_STATUS ( 'not_yet_approved' ) ;
#180 = EDGE_CURVE ( 'NONE', #236, #236, #140, .T. ) ;
#181 =( NAMED_UNIT ( * ) SI_UNIT ( $, .STERADIAN. ) SOLID_ANGLE_UNIT ( ) );
#182 = MANIFOLD_SOLID_BREP ( 'Corps-Déplacer/Copier1[2]', #135 ) ;
#183 = LOCAL_TIME ( 9, 13, 5.000000000000000000, #222 ) ;
#184 = APPROVAL_ROLE ( '' ) ;
#185 = EDGE_CURVE ( 'NONE', #20, #20, #207, .T. ) ;
#186 = EDGE_LOOP ( 'NONE', ( #206 ) ) ;
#187 = EDGE_CURVE ( 'NONE', #262, #262, #249, .T. ) ;
#188 = CARTESIAN_POINT ( 'NONE',  ( 1.745740669421562931E-15, -6.157397079727657960E-17, 0.4999999999999989453 ) ) ;
#189 = DIRECTION ( 'NONE',  ( -5.135813185032628650E-31, -1.000000000000000000, -1.445602896647339163E-16 ) ) ;
#190 = AXIS2_PLACEMENT_3D ( 'NONE', #188, #149, #189 ) ;
#191 = SECURITY_CLASSIFICATION ( '', '', #247 ) ;
#192 = ADVANCED_FACE ( 'NONE', ( #194 ), #198, .T. ) ;
#193 = CARTESIAN_POINT ( 'NONE',  ( -2.995467607532502525E-30, 1.056530550161885421E-31, -8.579360210829653300E-16 ) ) ;
#194 = FACE_OUTER_BOUND ( 'NONE', #6, .T. ) ;
#195 = DIRECTION ( 'NONE',  ( 3.491481338843133355E-15, -1.231479415945534057E-16, 1.000000000000000000 ) ) ;
#196 = FACE_OUTER_BOUND ( 'NONE', #104, .T. ) ;
#197 = DIRECTION ( 'NONE',  ( -4.299687399943272737E-31, -1.000000000000000000, -1.231479415945534057E-16 ) ) ;
#198 = PLANE ( 'NONE',  #63 ) ;
#199 = MECHANICAL_CONTEXT ( 'NONE', #261, 'mechanical' ) ;
#200 = AXIS2_PLACEMENT_3D ( 'NONE', #241, #240, #257 ) ;
#201 = APPROVAL_DATE_TIME ( #244, #159 ) ;
#202 = COORDINATED_UNIVERSAL_TIME_OFFSET ( 1, 0, .AHEAD. ) ;
#203 = PERSON_AND_ORGANIZATION ( #223, #25 ) ;
#204 = CC_DESIGN_DATE_AND_TIME_ASSIGNMENT ( #79, #121, ( #122 ) ) ;
#205 = ADVANCED_FACE ( 'NONE', ( #196, #256 ), #15, .T. ) ;
#206 = ORIENTED_EDGE ( 'NONE', *, *, #107, .F. ) ;
#207 = CIRCLE ( 'NONE', #174, 2.999999999999997780 ) ;
#208 = DIRECTION ( 'NONE',  ( 3.491481338843133355E-15, -1.224646799147353207E-16, 1.000000000000000000 ) ) ;
#209 = DIRECTION ( 'NONE',  ( -3.491481338843133355E-15, 1.224646799147353207E-16, -1.000000000000000000 ) ) ;
#210 = DIRECTION ( 'NONE',  ( -4.275831445896958607E-31, -1.000000000000000000, -1.224646799147353207E-16 ) ) ;
#211 = CARTESIAN_POINT ( 'NONE',  ( 1.990144363140585886E-13, -6.980486755139912911E-15, 56.99999999999999289 ) ) ;
#212 = DIRECTION ( 'NONE',  ( 0.0000000000000000000, 1.000000000000000000, 0.0000000000000000000 ) ) ;
#213 = PRODUCT ( '56643', '56643', '', ( #199 ) ) ;
#214 = FACE_OUTER_BOUND ( 'NONE', #105, .T. ) ;
#215 = CIRCLE ( 'NONE', #190, 1.500000000000000000 ) ;
#216 = VERTEX_POINT ( 'NONE', #137 ) ;
#217 = VERTEX_POINT ( 'NONE', #56 ) ;
#218 = VERTEX_POINT ( 'NONE', #112 ) ;
#219 = AXIS2_PLACEMENT_3D ( 'NONE', #211, #209, #29 ) ;
#220 =( NAMED_UNIT ( * ) PLANE_ANGLE_UNIT ( ) SI_UNIT ( $, .RADIAN. ) );
#221 = PERSON_AND_ORGANIZATION_ROLE ( 'creator' ) ;
#222 = COORDINATED_UNIVERSAL_TIME_OFFSET ( 1, 0, .AHEAD. ) ;
#223 = PERSON ( 'UNSPECIFIED', 'UNSPECIFIED', 'UNSPECIFIED', ('UNSPECIFIED'), ('UNSPECIFIED'), ('UNSPECIFIED') ) ;
#224 = PERSON_AND_ORGANIZATION ( #223, #25 ) ;
#225 = AXIS2_PLACEMENT_3D ( 'NONE', #158, #74, #115 ) ;
#226 = EDGE_CURVE ( 'NONE', #218, #218, #165, .T. ) ;
#227 = EDGE_LOOP ( 'NONE', ( #230 ) ) ;
#228 = ORIENTED_EDGE ( 'NONE', *, *, #187, .T. ) ;
#229 = AXIS2_PLACEMENT_3D ( 'NONE', #175, #255, #132 ) ;
#230 = ORIENTED_EDGE ( 'NONE', *, *, #108, .F. ) ;
#231 = ADVANCED_FACE ( 'NONE', ( #214, #77 ), #97, .T. ) ;
#232 = EDGE_LOOP ( 'NONE', ( #30 ) ) ;
#233 = ADVANCED_FACE ( 'NONE', ( #154 ), #237, .F. ) ;
#234 = FACE_OUTER_BOUND ( 'NONE', #86, .T. ) ;
#235 = AXIS2_PLACEMENT_3D ( 'NONE', #252, #91, #253 ) ;
#236 = VERTEX_POINT ( 'NONE', #134 ) ;
#237 = PLANE ( 'NONE',  #243 ) ;
#238 = PRODUCT_DEFINITION_SHAPE ( 'NONE', 'NONE',  #122 ) ;
#239 = CARTESIAN_POINT ( 'NONE',  ( -3.425436347526830237E-30, -1.000000000000000000, -9.810839626775187851E-16 ) ) ;
#240 = DIRECTION ( 'NONE',  ( -3.491481338843133355E-15, 1.224646799147353207E-16, -1.000000000000000000 ) ) ;
#241 = CARTESIAN_POINT ( 'NONE',  ( 1.972686956446370535E-13, -6.919254415182545337E-15, 56.50000000000000000 ) ) ;
#242 = APPLICATION_CONTEXT ( 'configuration controlled 3d designs of mechanical parts and assemblies' ) ;
#243 = AXIS2_PLACEMENT_3D ( 'NONE', #17, #173, #33 ) ;
#244 = DATE_AND_TIME ( #161, #260 ) ;
#245 = ADVANCED_FACE ( 'NONE', ( #54, #176 ), #53, .T. ) ;
#246 = PERSON_AND_ORGANIZATION_ROLE ( 'classification_officer' ) ;
#247 = SECURITY_CLASSIFICATION_LEVEL ( 'unclassified' ) ;
#248 = DATE_TIME_ROLE ( 'classification_date' ) ;
#249 = CIRCLE ( 'NONE', #229, 1.500000000000001332 ) ;
#250 = EDGE_LOOP ( 'NONE', ( #128 ) ) ;
#251 = EDGE_LOOP ( 'NONE', ( #169 ) ) ;
#252 = CARTESIAN_POINT ( 'NONE',  ( 0.0000000000000000000, 0.0000000000000000000, 0.0000000000000000000 ) ) ;
#253 = DIRECTION ( 'NONE',  ( 4.275831445896958607E-31, 1.000000000000000000, 1.224646799147353454E-16 ) ) ;
#254 = FACE_OUTER_BOUND ( 'NONE', #31, .T. ) ;
#255 = DIRECTION ( 'NONE',  ( 3.491481338843133355E-15, -1.231479415945534057E-16, 1.000000000000000000 ) ) ;
#256 = FACE_OUTER_BOUND ( 'NONE', #52, .T. ) ;
#257 = DIRECTION ( 'NONE',  ( 0.0000000000000000000, 1.000000000000000000, 0.0000000000000000000 ) ) ;
#258 = DIRECTION ( 'NONE',  ( 3.491481338843133355E-15, -1.224646799147353207E-16, 1.000000000000000000 ) ) ;
#259 = AXIS2_PLACEMENT_3D ( 'NONE', #178, #19, #156 ) ;
#260 = LOCAL_TIME ( 9, 13, 5.000000000000000000, #4 ) ;
#261 = APPLICATION_CONTEXT ( 'configuration controlled 3d designs of mechanical parts and assemblies' ) ;
#262 = VERTEX_POINT ( 'NONE', #153 ) ;
#263 = APPROVAL_ROLE ( '' ) ;
ENDSEC;
END-ISO-10303-21;
