ISO-10303-21;
HEADER;
FILE_DESCRIPTION (( 'STEP AP203' ),
    '1' );
FILE_NAME ('56637.step',
    '2021-11-18T08:13:11',
    ( '' ),
    ( '' ),
    'SwSTEP 2.0',
    'SolidWorks 2019',
    '' );
FILE_SCHEMA (( 'CONFIG_CONTROL_DESIGN' ));
ENDSEC;

DATA;
#1 = CONICAL_SURFACE ( 'NONE', #13, 5.999999999999998224, 0.7853981633974523868 ) ;
#2 = DIRECTION ( 'NONE',  ( 3.491481338843133355E-15, -1.224646799147353207E-16, 1.000000000000000000 ) ) ;
#3 = ORIENTED_EDGE ( 'NONE', *, *, #155, .F. ) ;
#4 = AXIS2_PLACEMENT_3D ( 'NONE', #93, #229, #23 ) ;
#5 = EDGE_LOOP ( 'NONE', ( #105 ) ) ;
#6 = CIRCLE ( 'NONE', #162, 4.625000000000000000 ) ;
#7 = COORDINATED_UNIVERSAL_TIME_OFFSET ( 1, 0, .AHEAD. ) ;
#8 = ORIENTED_EDGE ( 'NONE', *, *, #260, .F. ) ;
#9 = APPROVAL ( #16, 'UNSPECIFIED' ) ;
#10 = DATE_AND_TIME ( #230, #243 ) ;
#11 = ORIENTED_EDGE ( 'NONE', *, *, #135, .T. ) ;
#12 = PERSON_AND_ORGANIZATION_ROLE ( 'design_supplier' ) ;
#13 = AXIS2_PLACEMENT_3D ( 'NONE', #251, #149, #88 ) ;
#14 = CALENDAR_DATE ( 2021, 18, 11 ) ;
#15 = CARTESIAN_POINT ( 'NONE',  ( -2.271282991659793715E-30, 0.0000000000000000000, -6.505213034913026604E-16 ) ) ;
#16 = APPROVAL_STATUS ( 'not_yet_approved' ) ;
#17 = CARTESIAN_POINT ( 'NONE',  ( 0.0000000000000000000, 0.0000000000000000000, 0.0000000000000000000 ) ) ;
#18 = ADVANCED_FACE ( 'NONE', ( #127 ), #67, .F. ) ;
#19 = CARTESIAN_POINT ( 'NONE',  ( 5.000000000000002665, 0.0000000000000000000, 0.9999999999999813483 ) ) ;
#20 = VERTEX_POINT ( 'NONE', #102 ) ;
#21 = APPLICATION_CONTEXT ( 'configuration controlled 3d designs of mechanical parts and assemblies' ) ;
#22 = VERTEX_POINT ( 'NONE', #262 ) ;
#23 = DIRECTION ( 'NONE',  ( -4.275831445896958607E-31, -1.000000000000000000, -1.224646799147353207E-16 ) ) ;
#24 = CONICAL_SURFACE ( 'NONE', #96, 5.000000000000000000, 0.7853981633974552734 ) ;
#25 = EDGE_LOOP ( 'NONE', ( #129 ) ) ;
#26 = DIRECTION ( 'NONE',  ( -3.491481338843133355E-15, 1.224646799147353207E-16, -1.000000000000000000 ) ) ;
#27 = PERSON_AND_ORGANIZATION ( #220, #184 ) ;
#28 = DIRECTION ( 'NONE',  ( 3.491481338843133355E-15, -0.0000000000000000000, 1.000000000000000000 ) ) ;
#29 = FACE_OUTER_BOUND ( 'NONE', #245, .T. ) ;
#30 = PERSON_AND_ORGANIZATION ( #220, #184 ) ;
#31 = CALENDAR_DATE ( 2021, 18, 11 ) ;
#32 = CC_DESIGN_DATE_AND_TIME_ASSIGNMENT ( #141, #36, ( #112 ) ) ;
#33 = DIRECTION ( 'NONE',  ( 0.0000000000000000000, 1.000000000000000000, 0.0000000000000000000 ) ) ;
#34 = DIRECTION ( 'NONE',  ( -3.491481338843133355E-15, 1.224646799147353207E-16, -1.000000000000000000 ) ) ;
#35 = ADVANCED_FACE ( 'NONE', ( #193 ), #131, .T. ) ;
#36 = DATE_TIME_ROLE ( 'classification_date' ) ;
#37 = CARTESIAN_POINT ( 'NONE',  ( 5.000000000000105693, 0.0000000000000000000, 30.37499999999997868 ) ) ;
#38 = DESIGN_CONTEXT ( 'detailed design', #21, 'design' ) ;
#39 = AXIS2_PLACEMENT_3D ( 'NONE', #186, #61, #223 ) ;
#40 =( NAMED_UNIT ( * ) SI_UNIT ( $, .STERADIAN. ) SOLID_ANGLE_UNIT ( ) );
#41 = EDGE_LOOP ( 'NONE', ( #209 ) ) ;
#42 = CIRCLE ( 'NONE', #201, 5.000000000000000000 ) ;
#43 = EDGE_LOOP ( 'NONE', ( #222 ) ) ;
#44 = FACE_OUTER_BOUND ( 'NONE', #226, .T. ) ;
#45 = APPROVAL_DATE_TIME ( #159, #165 ) ;
#46 = CARTESIAN_POINT ( 'NONE',  ( 1.060537456673601583E-13, 0.0000000000000000000, 30.37499999999999645 ) ) ;
#47 = AXIS2_PLACEMENT_3D ( 'NONE', #256, #77, #239 ) ;
#48 = DIRECTION ( 'NONE',  ( 0.0000000000000000000, 1.000000000000000000, 0.0000000000000000000 ) ) ;
#49 = ORIENTED_EDGE ( 'NONE', *, *, #224, .T. ) ;
#50 = PERSON_AND_ORGANIZATION ( #220, #184 ) ;
#51 = CC_DESIGN_PERSON_AND_ORGANIZATION_ASSIGNMENT ( #120, #126, ( #125 ) ) ;
#52 = COORDINATED_UNIVERSAL_TIME_OFFSET ( 1, 0, .AHEAD. ) ;
#53 = CLOSED_SHELL ( 'NONE', ( #130, #35, #182, #244 ) ) ;
#54 = ADVANCED_FACE ( 'NONE', ( #29, #177 ), #1, .T. ) ;
#55 = EDGE_CURVE ( 'NONE', #208, #208, #194, .T. ) ;
#56 = CC_DESIGN_PERSON_AND_ORGANIZATION_ASSIGNMENT ( #75, #235, ( #123 ) ) ;
#57 = ADVANCED_FACE ( 'NONE', ( #44, #73 ), #250, .T. ) ;
#58 = DATE_AND_TIME ( #14, #143 ) ;
#59 =( GEOMETRIC_REPRESENTATION_CONTEXT ( 3 ) GLOBAL_UNCERTAINTY_ASSIGNED_CONTEXT ( ( #170 ) ) GLOBAL_UNIT_ASSIGNED_CONTEXT ( ( #145, #97, #40 ) ) REPRESENTATION_CONTEXT ( 'NONE', 'WORKASPACE' ) );
#60 = MANIFOLD_SOLID_BREP ( 'Corps-Déplacer/Copier1[2]', #53 ) ;
#61 = DIRECTION ( 'NONE',  ( -3.491481338843133355E-15, 1.224646799147353207E-16, -1.000000000000000000 ) ) ;
#62 = VERTEX_POINT ( 'NONE', #167 ) ;
#63 = APPROVAL_PERSON_ORGANIZATION ( #27, #165, #70 ) ;
#64 = AXIS2_PLACEMENT_3D ( 'NONE', #86, #100, #187 ) ;
#65 = CC_DESIGN_PERSON_AND_ORGANIZATION_ASSIGNMENT ( #237, #218, ( #112 ) ) ;
#66 = DIRECTION ( 'NONE',  ( -3.491481338843133355E-15, 1.224646799147353207E-16, -1.000000000000000000 ) ) ;
#67 = PLANE ( 'NONE',  #118 ) ;
#68 = EDGE_LOOP ( 'NONE', ( #196 ) ) ;
#69 = CARTESIAN_POINT ( 'NONE',  ( -1.282749433769087757E-30, 0.0000000000000000000, -3.673940397442059868E-16 ) ) ;
#70 = APPROVAL_ROLE ( '' ) ;
#71 = DIRECTION ( 'NONE',  ( 1.000000000000000000, 0.0000000000000000000, -3.491481338843132961E-15 ) ) ;
#72 = APPROVAL_STATUS ( 'not_yet_approved' ) ;
#73 = FACE_OUTER_BOUND ( 'NONE', #68, .T. ) ;
#74 = AXIS2_PLACEMENT_3D ( 'NONE', #95, #139, #160 ) ;
#75 = PERSON_AND_ORGANIZATION ( #220, #184 ) ;
#76 = FACE_OUTER_BOUND ( 'NONE', #43, .T. ) ;
#77 = DIRECTION ( 'NONE',  ( -3.491481338843133355E-15, 1.224646799147353207E-16, -1.000000000000000000 ) ) ;
#78 = DIRECTION ( 'NONE',  ( 3.491481338843133355E-15, -0.0000000000000000000, 1.000000000000000000 ) ) ;
#79 = EDGE_CURVE ( 'NONE', #263, #263, #42, .T. ) ;
#80 = DIRECTION ( 'NONE',  ( 1.000000000000000000, 0.0000000000000000000, -3.491481338843133355E-15 ) ) ;
#81 = AXIS2_PLACEMENT_3D ( 'NONE', #183, #179, #33 ) ;
#82 = VERTEX_POINT ( 'NONE', #121 ) ;
#83 = APPLICATION_CONTEXT ( 'configuration controlled 3d designs of mechanical parts and assemblies' ) ;
#84 = ADVANCED_FACE ( 'NONE', ( #158 ), #234, .F. ) ;
#85 = DIRECTION ( 'NONE',  ( -4.275831445896958607E-31, -1.000000000000000000, -1.224646799147353207E-16 ) ) ;
#86 = CARTESIAN_POINT ( 'NONE',  ( 0.0000000000000000000, 0.0000000000000000000, 0.0000000000000000000 ) ) ;
#87 = EDGE_LOOP ( 'NONE', ( #172 ) ) ;
#88 = DIRECTION ( 'NONE',  ( 1.000000000000000000, 0.0000000000000000000, -3.469446951953615372E-15 ) ) ;
#89 = CC_DESIGN_PERSON_AND_ORGANIZATION_ASSIGNMENT ( #50, #12, ( #123 ) ) ;
#90 = ADVANCED_BREP_SHAPE_REPRESENTATION ( '56637', ( #146, #60, #64 ), #59 ) ;
#91 = CARTESIAN_POINT ( 'NONE',  ( 2.618611004132350143E-13, 3.374459510989170860E-32, 75.00000000000000000 ) ) ;
#92 = DATE_TIME_ROLE ( 'creation_date' ) ;
#93 = CARTESIAN_POINT ( 'NONE',  ( 4.189777606611760026E-14, 3.749399456654641830E-32, 12.00000000000000000 ) ) ;
#94 = FACE_OUTER_BOUND ( 'NONE', #228, .T. ) ;
#95 = CARTESIAN_POINT ( 'NONE',  ( 3.491481338843129805E-15, 0.0000000000000000000, 0.9999999999999988898 ) ) ;
#96 = AXIS2_PLACEMENT_3D ( 'NONE', #134, #163, #48 ) ;
#97 =( NAMED_UNIT ( * ) PLANE_ANGLE_UNIT ( ) SI_UNIT ( $, .RADIAN. ) );
#98 = APPROVAL_PERSON_ORGANIZATION ( #30, #101, #132 ) ;
#99 = VERTEX_POINT ( 'NONE', #169 ) ;
#100 = DIRECTION ( 'NONE',  ( 0.0000000000000000000, 0.0000000000000000000, 1.000000000000000000 ) ) ;
#101 = APPROVAL ( #72, 'UNSPECIFIED' ) ;
#102 = CARTESIAN_POINT ( 'NONE',  ( 4.189777606611760026E-14, 4.999999999999998224, 12.00000000000000000 ) ) ;
#103 = AXIS2_PLACEMENT_3D ( 'NONE', #240, #34, #115 ) ;
#104 = CARTESIAN_POINT ( 'NONE',  ( 4.189777606611760026E-14, 3.749399456654641830E-32, 12.00000000000000000 ) ) ;
#105 = ORIENTED_EDGE ( 'NONE', *, *, #128, .T. ) ;
#106 = DIRECTION ( 'NONE',  ( 4.275831445896958607E-31, 1.000000000000000000, 1.224646799147353207E-16 ) ) ;
#107 = EDGE_LOOP ( 'NONE', ( #3 ) ) ;
#108 = LOCAL_TIME ( 9, 13, 11.00000000000000000, #7 ) ;
#109 = APPLICATION_PROTOCOL_DEFINITION ( 'international standard', 'config_control_design', 1994, #21 ) ;
#110 = CARTESIAN_POINT ( 'NONE',  ( 3.491481338843129805E-15, 0.0000000000000000000, 0.9999999999999988898 ) ) ;
#111 = CC_DESIGN_DATE_AND_TIME_ASSIGNMENT ( #10, #92, ( #252 ) ) ;
#112 = SECURITY_CLASSIFICATION ( '', '', #180 ) ;
#113 = APPROVAL_ROLE ( '' ) ;
#114 = CYLINDRICAL_SURFACE ( 'NONE', #232, 5.000000000000000000 ) ;
#115 = DIRECTION ( 'NONE',  ( 4.275831445896958607E-31, 1.000000000000000000, 1.224646799147353207E-16 ) ) ;
#116 = FACE_OUTER_BOUND ( 'NONE', #41, .T. ) ;
#117 = CIRCLE ( 'NONE', #142, 5.000000000000000000 ) ;
#118 = AXIS2_PLACEMENT_3D ( 'NONE', #91, #26, #106 ) ;
#119 = VERTEX_POINT ( 'NONE', #207 ) ;
#120 = PERSON_AND_ORGANIZATION ( #220, #184 ) ;
#121 = CARTESIAN_POINT ( 'NONE',  ( 4.625000000000104805, 0.0000000000000000000, 29.99999999999998224 ) ) ;
#122 = APPLICATION_PROTOCOL_DEFINITION ( 'international standard', 'config_control_design', 1994, #83 ) ;
#123 = PRODUCT_DEFINITION_FORMATION_WITH_SPECIFIED_SOURCE ( 'ANY', '', #125, .NOT_KNOWN. ) ;
#124 = ORIENTED_EDGE ( 'NONE', *, *, #224, .F. ) ;
#125 = PRODUCT ( '56637', '56637', '', ( #148 ) ) ;
#126 = PERSON_AND_ORGANIZATION_ROLE ( 'design_owner' ) ;
#127 = FACE_OUTER_BOUND ( 'NONE', #231, .T. ) ;
#128 = EDGE_CURVE ( 'NONE', #119, #119, #157, .T. ) ;
#129 = ORIENTED_EDGE ( 'NONE', *, *, #260, .T. ) ;
#130 = ADVANCED_FACE ( 'NONE', ( #199, #242 ), #259, .T. ) ;
#131 = PLANE ( 'NONE',  #4 ) ;
#132 = APPROVAL_ROLE ( '' ) ;
#133 = DIRECTION ( 'NONE',  ( 1.000000000000000000, 0.0000000000000000000, -3.375678115414327500E-15 ) ) ;
#134 = CARTESIAN_POINT ( 'NONE',  ( 2.601153597438134539E-13, -9.123618653647782737E-15, 74.50000000000001421 ) ) ;
#135 = EDGE_CURVE ( 'NONE', #22, #22, #117, .T. ) ;
#136 = FACE_OUTER_BOUND ( 'NONE', #107, .T. ) ;
#137 = CARTESIAN_POINT ( 'NONE',  ( 2.601153597438134539E-13, -9.123618653647782737E-15, 74.50000000000001421 ) ) ;
#138 = CARTESIAN_POINT ( 'NONE',  ( 4.189777606611760026E-14, 0.0000000000000000000, 12.00000000000000000 ) ) ;
#139 = DIRECTION ( 'NONE',  ( 3.491481338843133355E-15, -0.0000000000000000000, 1.000000000000000000 ) ) ;
#140 = DIRECTION ( 'NONE',  ( -3.491481338843133355E-15, 1.224646799147353207E-16, -1.000000000000000000 ) ) ;
#141 = DATE_AND_TIME ( #31, #150 ) ;
#142 = AXIS2_PLACEMENT_3D ( 'NONE', #137, #140, #241 ) ;
#143 = LOCAL_TIME ( 9, 13, 11.00000000000000000, #205 ) ;
#144 = ADVANCED_FACE ( 'NONE', ( #219, #116 ), #114, .T. ) ;
#145 =( LENGTH_UNIT ( ) NAMED_UNIT ( * ) SI_UNIT ( .MILLI., .METRE. ) );
#146 = MANIFOLD_SOLID_BREP ( 'Corps-Déplacer/Copier1[1]', #206 ) ;
#147 = TOROIDAL_SURFACE ( 'NONE', #74, 4.000000000000000000, 0.9999999999999995559 ) ;
#148 = MECHANICAL_CONTEXT ( 'NONE', #83, 'mechanical' ) ;
#149 = DIRECTION ( 'NONE',  ( 3.491481338843133355E-15, -0.0000000000000000000, 1.000000000000000000 ) ) ;
#150 = LOCAL_TIME ( 9, 13, 11.00000000000000000, #192 ) ;
#151 = ORIENTED_EDGE ( 'NONE', *, *, #55, .F. ) ;
#152 = CALENDAR_DATE ( 2021, 18, 11 ) ;
#153 = ORIENTED_EDGE ( 'NONE', *, *, #176, .T. ) ;
#154 = EDGE_LOOP ( 'NONE', ( #124 ) ) ;
#155 = EDGE_CURVE ( 'NONE', #99, #99, #189, .T. ) ;
#156 = DIRECTION ( 'NONE',  ( 3.491481338843133355E-15, -0.0000000000000000000, 1.000000000000000000 ) ) ;
#157 = CIRCLE ( 'NONE', #81, 4.500000000000006217 ) ;
#158 = FACE_OUTER_BOUND ( 'NONE', #154, .T. ) ;
#159 = DATE_AND_TIME ( #195, #108 ) ;
#160 = DIRECTION ( 'NONE',  ( 1.000000000000000000, 0.0000000000000000000, -3.491481338843133355E-15 ) ) ;
#161 = PLANE ( 'NONE',  #103 ) ;
#162 = AXIS2_PLACEMENT_3D ( 'NONE', #138, #78, #133 ) ;
#163 = DIRECTION ( 'NONE',  ( -3.491481338843133355E-15, 1.224646799147353207E-16, -1.000000000000000000 ) ) ;
#164 = SHAPE_DEFINITION_REPRESENTATION ( #168, #90 ) ;
#165 = APPROVAL ( #248, 'UNSPECIFIED' ) ;
#166 = AXIS2_PLACEMENT_3D ( 'NONE', #110, #190, #175 ) ;
#167 = CARTESIAN_POINT ( 'NONE',  ( 4.625000000000041744, 0.0000000000000000000, 11.99999999999998401 ) ) ;
#168 = PRODUCT_DEFINITION_SHAPE ( 'NONE', 'NONE',  #252 ) ;
#169 = CARTESIAN_POINT ( 'NONE',  ( 4.000000000000000000, 0.0000000000000000000, -1.461644665886383608E-14 ) ) ;
#170 = UNCERTAINTY_MEASURE_WITH_UNIT (LENGTH_MEASURE( 1.000000000000000082E-05 ), #145, 'distance_accuracy_value', 'NONE');
#171 = CC_DESIGN_PERSON_AND_ORGANIZATION_ASSIGNMENT ( #257, #200, ( #252 ) ) ;
#172 = ORIENTED_EDGE ( 'NONE', *, *, #55, .T. ) ;
#173 = EDGE_LOOP ( 'NONE', ( #8 ) ) ;
#174 = CIRCLE ( 'NONE', #221, 4.625000000000000000 ) ;
#175 = DIRECTION ( 'NONE',  ( 1.000000000000000000, 0.0000000000000000000, -3.512815038853035155E-15 ) ) ;
#176 = EDGE_CURVE ( 'NONE', #82, #82, #174, .T. ) ;
#177 = FACE_BOUND ( 'NONE', #253, .T. ) ;
#178 = DATE_AND_TIME ( #152, #202 ) ;
#179 = DIRECTION ( 'NONE',  ( -3.491481338843133355E-15, 1.224646799147353207E-16, -1.000000000000000000 ) ) ;
#180 = SECURITY_CLASSIFICATION_LEVEL ( 'unclassified' ) ;
#181 = DIRECTION ( 'NONE',  ( 3.491481338843133355E-15, -0.0000000000000000000, 1.000000000000000000 ) ) ;
#182 = ADVANCED_FACE ( 'NONE', ( #76, #94 ), #147, .T. ) ;
#183 = CARTESIAN_POINT ( 'NONE',  ( 2.618611004132350143E-13, -9.184850993605148733E-15, 75.00000000000000000 ) ) ;
#184 = ORGANIZATION ( 'UNSPECIFIED', 'UNSPECIFIED', '' ) ;
#185 = APPROVAL_DATE_TIME ( #58, #9 ) ;
#186 = CARTESIAN_POINT ( 'NONE',  ( 4.189777606611760026E-14, -1.469576158976823947E-15, 12.00000000000000000 ) ) ;
#187 = DIRECTION ( 'NONE',  ( 1.000000000000000000, 0.0000000000000000000, 0.0000000000000000000 ) ) ;
#188 = PRODUCT_RELATED_PRODUCT_CATEGORY ( 'detail', '', ( #125 ) ) ;
#189 = CIRCLE ( 'NONE', #247, 4.000000000000000000 ) ;
#190 = DIRECTION ( 'NONE',  ( 3.491481338843133355E-15, -0.0000000000000000000, 1.000000000000000000 ) ) ;
#191 = EDGE_LOOP ( 'NONE', ( #213 ) ) ;
#192 = COORDINATED_UNIVERSAL_TIME_OFFSET ( 1, 0, .AHEAD. ) ;
#193 = FACE_OUTER_BOUND ( 'NONE', #173, .T. ) ;
#194 = CIRCLE ( 'NONE', #166, 4.999999999999999112 ) ;
#195 = CALENDAR_DATE ( 2021, 18, 11 ) ;
#196 = ORIENTED_EDGE ( 'NONE', *, *, #176, .F. ) ;
#197 = DIRECTION ( 'NONE',  ( 1.000000000000000000, 0.0000000000000000000, -3.469446951953614189E-15 ) ) ;
#198 = DIRECTION ( 'NONE',  ( 4.275831445896958607E-31, 1.000000000000000000, 1.224646799147353207E-16 ) ) ;
#199 = FACE_OUTER_BOUND ( 'NONE', #87, .T. ) ;
#200 = PERSON_AND_ORGANIZATION_ROLE ( 'creator' ) ;
#201 = AXIS2_PLACEMENT_3D ( 'NONE', #46, #216, #197 ) ;
#202 = LOCAL_TIME ( 9, 13, 11.00000000000000000, #217 ) ;
#203 = ADVANCED_FACE ( 'NONE', ( #236, #233 ), #24, .T. ) ;
#204 = PERSON_AND_ORGANIZATION ( #220, #184 ) ;
#205 = COORDINATED_UNIVERSAL_TIME_OFFSET ( 1, 0, .AHEAD. ) ;
#206 = CLOSED_SHELL ( 'NONE', ( #144, #203, #18, #57, #54, #84 ) ) ;
#207 = CARTESIAN_POINT ( 'NONE',  ( 2.618611004132350143E-13, 4.499999999999997335, 75.00000000000000000 ) ) ;
#208 = VERTEX_POINT ( 'NONE', #19 ) ;
#209 = ORIENTED_EDGE ( 'NONE', *, *, #79, .T. ) ;
#210 = AXIS2_PLACEMENT_3D ( 'NONE', #104, #2, #85 ) ;
#211 = CC_DESIGN_APPROVAL ( #165, ( #252 ) ) ;
#212 = EDGE_LOOP ( 'NONE', ( #11 ) ) ;
#213 = ORIENTED_EDGE ( 'NONE', *, *, #135, .F. ) ;
#214 = ORIENTED_EDGE ( 'NONE', *, *, #128, .F. ) ;
#215 = CIRCLE ( 'NONE', #39, 5.000000000000000000 ) ;
#216 = DIRECTION ( 'NONE',  ( 3.491481338843133355E-15, -0.0000000000000000000, 1.000000000000000000 ) ) ;
#217 = COORDINATED_UNIVERSAL_TIME_OFFSET ( 1, 0, .AHEAD. ) ;
#218 = PERSON_AND_ORGANIZATION_ROLE ( 'classification_officer' ) ;
#219 = FACE_OUTER_BOUND ( 'NONE', #212, .T. ) ;
#220 = PERSON ( 'UNSPECIFIED', 'UNSPECIFIED', 'UNSPECIFIED', ('UNSPECIFIED'), ('UNSPECIFIED'), ('UNSPECIFIED') ) ;
#221 = AXIS2_PLACEMENT_3D ( 'NONE', #238, #156, #258 ) ;
#222 = ORIENTED_EDGE ( 'NONE', *, *, #155, .T. ) ;
#223 = DIRECTION ( 'NONE',  ( 0.0000000000000000000, 1.000000000000000000, 0.0000000000000000000 ) ) ;
#224 = EDGE_CURVE ( 'NONE', #62, #62, #6, .T. ) ;
#225 = CC_DESIGN_SECURITY_CLASSIFICATION ( #112, ( #123 ) ) ;
#226 = EDGE_LOOP ( 'NONE', ( #49 ) ) ;
#227 = CC_DESIGN_APPROVAL ( #9, ( #112 ) ) ;
#228 = EDGE_LOOP ( 'NONE', ( #151 ) ) ;
#229 = DIRECTION ( 'NONE',  ( 3.491481338843133355E-15, -1.224646799147353207E-16, 1.000000000000000000 ) ) ;
#230 = CALENDAR_DATE ( 2021, 18, 11 ) ;
#231 = EDGE_LOOP ( 'NONE', ( #214 ) ) ;
#232 = AXIS2_PLACEMENT_3D ( 'NONE', #17, #66, #198 ) ;
#233 = FACE_OUTER_BOUND ( 'NONE', #191, .T. ) ;
#234 = PLANE ( 'NONE',  #210 ) ;
#235 = PERSON_AND_ORGANIZATION_ROLE ( 'creator' ) ;
#236 = FACE_BOUND ( 'NONE', #5, .T. ) ;
#237 = PERSON_AND_ORGANIZATION ( #220, #184 ) ;
#238 = CARTESIAN_POINT ( 'NONE',  ( 1.047444401652940007E-13, 0.0000000000000000000, 30.00000000000000000 ) ) ;
#239 = DIRECTION ( 'NONE',  ( 4.275831445896958607E-31, 1.000000000000000000, 1.224646799147353207E-16 ) ) ;
#240 = CARTESIAN_POINT ( 'NONE',  ( -1.068957861474239564E-30, 3.749399456654644020E-32, -3.061616997868383141E-16 ) ) ;
#241 = DIRECTION ( 'NONE',  ( 0.0000000000000000000, 1.000000000000000000, 0.0000000000000000000 ) ) ;
#242 = FACE_OUTER_BOUND ( 'NONE', #25, .T. ) ;
#243 = LOCAL_TIME ( 9, 13, 11.00000000000000000, #52 ) ;
#244 = ADVANCED_FACE ( 'NONE', ( #136 ), #161, .T. ) ;
#245 = EDGE_LOOP ( 'NONE', ( #246 ) ) ;
#246 = ORIENTED_EDGE ( 'NONE', *, *, #79, .F. ) ;
#247 = AXIS2_PLACEMENT_3D ( 'NONE', #15, #181, #80 ) ;
#248 = APPROVAL_STATUS ( 'not_yet_approved' ) ;
#249 = APPROVAL_PERSON_ORGANIZATION ( #204, #9, #113 ) ;
#250 = CYLINDRICAL_SURFACE ( 'NONE', #255, 4.625000000000000000 ) ;
#251 = CARTESIAN_POINT ( 'NONE',  ( 1.095452270062032538E-13, 0.0000000000000000000, 31.37499999999998579 ) ) ;
#252 = PRODUCT_DEFINITION ( 'UNKNOWN', '', #123, #38 ) ;
#253 = EDGE_LOOP ( 'NONE', ( #153 ) ) ;
#254 = APPROVAL_DATE_TIME ( #178, #101 ) ;
#255 = AXIS2_PLACEMENT_3D ( 'NONE', #69, #28, #71 ) ;
#256 = CARTESIAN_POINT ( 'NONE',  ( 0.0000000000000000000, 0.0000000000000000000, 0.0000000000000000000 ) ) ;
#257 = PERSON_AND_ORGANIZATION ( #220, #184 ) ;
#258 = DIRECTION ( 'NONE',  ( 1.000000000000000000, 0.0000000000000000000, -3.750753461571474649E-15 ) ) ;
#259 = CYLINDRICAL_SURFACE ( 'NONE', #47, 5.000000000000000000 ) ;
#260 = EDGE_CURVE ( 'NONE', #20, #20, #215, .T. ) ;
#261 = CC_DESIGN_APPROVAL ( #101, ( #123 ) ) ;
#262 = CARTESIAN_POINT ( 'NONE',  ( 2.601153597438134539E-13, 4.999999999999990230, 74.50000000000001421 ) ) ;
#263 = VERTEX_POINT ( 'NONE', #37 ) ;
ENDSEC;
END-ISO-10303-21;
