ISO-10303-21;
HEADER;
FILE_DESCRIPTION (( 'STEP AP203' ),
    '1' );
FILE_NAME ('56636.step',
    '2021-11-18T08:13:11',
    ( '' ),
    ( '' ),
    'SwSTEP 2.0',
    'SolidWorks 2019',
    '' );
FILE_SCHEMA (( 'CONFIG_CONTROL_DESIGN' ));
ENDSEC;

DATA;
#1 = CIRCLE ( 'NONE', #257, 5.000000000000000000 ) ;
#2 = FACE_OUTER_BOUND ( 'NONE', #120, .T. ) ;
#3 = CARTESIAN_POINT ( 'NONE',  ( 1.745740669421562931E-15, 0.0000000000000000000, 0.4999999999999989453 ) ) ;
#4 = PRODUCT ( '56636', '56636', '', ( #118 ) ) ;
#5 = DIRECTION ( 'NONE',  ( 1.000000000000000000, 0.0000000000000000000, -3.491130995403325066E-15 ) ) ;
#6 = ORIENTED_EDGE ( 'NONE', *, *, #38, .T. ) ;
#7 = CC_DESIGN_APPROVAL ( #177, ( #122 ) ) ;
#8 = CARTESIAN_POINT ( 'NONE',  ( 2.618611004132350143E-13, 4.499999999999997335, 75.00000000000000000 ) ) ;
#9 = DIRECTION ( 'NONE',  ( -3.491481338843133355E-15, 1.224646799147353207E-16, -1.000000000000000000 ) ) ;
#10 = AXIS2_PLACEMENT_3D ( 'NONE', #151, #248, #231 ) ;
#11 = AXIS2_PLACEMENT_3D ( 'NONE', #258, #182, #206 ) ;
#12 = FACE_OUTER_BOUND ( 'NONE', #203, .T. ) ;
#13 = DIRECTION ( 'NONE',  ( -3.491481338843133355E-15, 1.224646799147353207E-16, -1.000000000000000000 ) ) ;
#14 = CC_DESIGN_DATE_AND_TIME_ASSIGNMENT ( #241, #159, ( #137 ) ) ;
#15 = CIRCLE ( 'NONE', #128, 4.500000000000000888 ) ;
#16 = CALENDAR_DATE ( 2021, 18, 11 ) ;
#17 = PERSON_AND_ORGANIZATION ( #65, #221 ) ;
#18 = APPROVAL_ROLE ( '' ) ;
#19 = CONICAL_SURFACE ( 'NONE', #136, 5.999999999999998224, 0.7853981633974523868 ) ;
#20 = DATE_AND_TIME ( #143, #84 ) ;
#21 = EDGE_LOOP ( 'NONE', ( #171 ) ) ;
#22 = ADVANCED_FACE ( 'NONE', ( #214, #66 ), #63, .T. ) ;
#23 = FACE_OUTER_BOUND ( 'NONE', #211, .T. ) ;
#24 = DIRECTION ( 'NONE',  ( 3.491481338843133355E-15, -0.0000000000000000000, 1.000000000000000000 ) ) ;
#25 = DIRECTION ( 'NONE',  ( -3.491481338843133355E-15, 1.224646799147353207E-16, -1.000000000000000000 ) ) ;
#26 = PLANE ( 'NONE',  #111 ) ;
#27 = CARTESIAN_POINT ( 'NONE',  ( 4.189777606611760026E-14, 4.999999999999998224, 12.00000000000000000 ) ) ;
#28 = CARTESIAN_POINT ( 'NONE',  ( 4.625000000000104805, 0.0000000000000000000, 29.99999999999998224 ) ) ;
#29 = EDGE_CURVE ( 'NONE', #237, #237, #101, .T. ) ;
#30 = DIRECTION ( 'NONE',  ( -3.491481338843133355E-15, 1.224646799147353207E-16, -1.000000000000000000 ) ) ;
#31 = DIRECTION ( 'NONE',  ( 3.491481338843133355E-15, -0.0000000000000000000, 1.000000000000000000 ) ) ;
#32 = AXIS2_PLACEMENT_3D ( 'NONE', #129, #64, #105 ) ;
#33 = DIRECTION ( 'NONE',  ( 0.0000000000000000000, 1.000000000000000000, 0.0000000000000000000 ) ) ;
#34 = CALENDAR_DATE ( 2021, 18, 11 ) ;
#35 = ORIENTED_EDGE ( 'NONE', *, *, #146, .T. ) ;
#36 =( GEOMETRIC_REPRESENTATION_CONTEXT ( 3 ) GLOBAL_UNCERTAINTY_ASSIGNED_CONTEXT ( ( #69 ) ) GLOBAL_UNIT_ASSIGNED_CONTEXT ( ( #74, #50, #254 ) ) REPRESENTATION_CONTEXT ( 'NONE', 'WORKASPACE' ) );
#37 = PRODUCT_DEFINITION_SHAPE ( 'NONE', 'NONE',  #137 ) ;
#38 = EDGE_CURVE ( 'NONE', #253, #253, #57, .T. ) ;
#39 = CIRCLE ( 'NONE', #61, 5.000000000000000000 ) ;
#40 = DIRECTION ( 'NONE',  ( 0.0000000000000000000, 1.000000000000000000, 0.0000000000000000000 ) ) ;
#41 = ORIENTED_EDGE ( 'NONE', *, *, #29, .T. ) ;
#42 = FACE_OUTER_BOUND ( 'NONE', #139, .T. ) ;
#43 = AXIS2_PLACEMENT_3D ( 'NONE', #134, #13, #114 ) ;
#44 = DIRECTION ( 'NONE',  ( 1.000000000000000000, 0.0000000000000000000, -3.375678115414327500E-15 ) ) ;
#45 = PERSON_AND_ORGANIZATION_ROLE ( 'classification_officer' ) ;
#46 = DIRECTION ( 'NONE',  ( 1.000000000000000000, 0.0000000000000000000, -3.469446951953614189E-15 ) ) ;
#47 = DIRECTION ( 'NONE',  ( 4.275831445896958607E-31, 1.000000000000000000, 1.224646799147353207E-16 ) ) ;
#48 = EDGE_CURVE ( 'NONE', #49, #49, #39, .T. ) ;
#49 = VERTEX_POINT ( 'NONE', #27 ) ;
#50 =( NAMED_UNIT ( * ) PLANE_ANGLE_UNIT ( ) SI_UNIT ( $, .RADIAN. ) );
#51 = CARTESIAN_POINT ( 'NONE',  ( -1.068957861474239564E-30, 3.749399456654644020E-32, -3.061616997868383141E-16 ) ) ;
#52 = DIRECTION ( 'NONE',  ( -3.491481338843133355E-15, 1.224646799147353207E-16, -1.000000000000000000 ) ) ;
#53 = CIRCLE ( 'NONE', #10, 4.625000000000000000 ) ;
#54 = PERSON_AND_ORGANIZATION ( #65, #221 ) ;
#55 = ORIENTED_EDGE ( 'NONE', *, *, #71, .T. ) ;
#56 = EDGE_LOOP ( 'NONE', ( #55 ) ) ;
#57 = CIRCLE ( 'NONE', #212, 4.625000000000000000 ) ;
#58 = PERSON_AND_ORGANIZATION ( #65, #221 ) ;
#59 = CC_DESIGN_PERSON_AND_ORGANIZATION_ASSIGNMENT ( #54, #207, ( #4 ) ) ;
#60 = FACE_OUTER_BOUND ( 'NONE', #170, .T. ) ;
#61 = AXIS2_PLACEMENT_3D ( 'NONE', #106, #190, #243 ) ;
#62 = COORDINATED_UNIVERSAL_TIME_OFFSET ( 1, 0, .AHEAD. ) ;
#63 = CYLINDRICAL_SURFACE ( 'NONE', #162, 4.625000000000000000 ) ;
#64 = DIRECTION ( 'NONE',  ( -3.491481338843133355E-15, 1.224646799147353207E-16, -1.000000000000000000 ) ) ;
#65 = PERSON ( 'UNSPECIFIED', 'UNSPECIFIED', 'UNSPECIFIED', ('UNSPECIFIED'), ('UNSPECIFIED'), ('UNSPECIFIED') ) ;
#66 = FACE_OUTER_BOUND ( 'NONE', #126, .T. ) ;
#67 = CONICAL_SURFACE ( 'NONE', #88, 5.000000000000000000, 0.7853981633974552734 ) ;
#68 = DIRECTION ( 'NONE',  ( 3.491481338843133355E-15, -0.0000000000000000000, 1.000000000000000000 ) ) ;
#69 = UNCERTAINTY_MEASURE_WITH_UNIT (LENGTH_MEASURE( 1.000000000000000082E-05 ), #74, 'distance_accuracy_value', 'NONE');
#70 = FACE_OUTER_BOUND ( 'NONE', #98, .T. ) ;
#71 = EDGE_CURVE ( 'NONE', #156, #156, #53, .T. ) ;
#72 = CC_DESIGN_PERSON_AND_ORGANIZATION_ASSIGNMENT ( #130, #45, ( #232 ) ) ;
#73 = CARTESIAN_POINT ( 'NONE',  ( 4.189777606611760026E-14, 3.749399456654641830E-32, 12.00000000000000000 ) ) ;
#74 =( LENGTH_UNIT ( ) NAMED_UNIT ( * ) SI_UNIT ( .MILLI., .METRE. ) );
#75 = AXIS2_PLACEMENT_3D ( 'NONE', #202, #52, #112 ) ;
#76 = CARTESIAN_POINT ( 'NONE',  ( 5.000000000000105693, 0.0000000000000000000, 30.37499999999997868 ) ) ;
#77 = PLANE ( 'NONE',  #75 ) ;
#78 = MANIFOLD_SOLID_BREP ( 'Corps-Déplacer/Copier1[2]', #179 ) ;
#79 = APPROVAL_STATUS ( 'not_yet_approved' ) ;
#80 = EDGE_LOOP ( 'NONE', ( #194 ) ) ;
#81 = ORIENTED_EDGE ( 'NONE', *, *, #239, .T. ) ;
#82 = DIRECTION ( 'NONE',  ( -4.275831445896958607E-31, -1.000000000000000000, -1.224646799147353207E-16 ) ) ;
#83 = PERSON_AND_ORGANIZATION ( #65, #221 ) ;
#84 = LOCAL_TIME ( 9, 13, 11.00000000000000000, #150 ) ;
#85 = CYLINDRICAL_SURFACE ( 'NONE', #32, 5.000000000000000000 ) ;
#86 = FACE_OUTER_BOUND ( 'NONE', #246, .T. ) ;
#87 = EDGE_LOOP ( 'NONE', ( #247 ) ) ;
#88 = AXIS2_PLACEMENT_3D ( 'NONE', #219, #9, #33 ) ;
#89 = EDGE_LOOP ( 'NONE', ( #228 ) ) ;
#90 = ADVANCED_FACE ( 'NONE', ( #60, #108 ), #19, .T. ) ;
#91 = VERTEX_POINT ( 'NONE', #198 ) ;
#92 = DIRECTION ( 'NONE',  ( -3.491481338843133355E-15, 1.224646799147353207E-16, -1.000000000000000000 ) ) ;
#93 = AXIS2_PLACEMENT_3D ( 'NONE', #124, #68, #234 ) ;
#94 = CARTESIAN_POINT ( 'NONE',  ( 5.000000000000000888, 0.0000000000000000000, 0.4999999999999814593 ) ) ;
#95 = APPROVAL_ROLE ( '' ) ;
#96 = AXIS2_PLACEMENT_3D ( 'NONE', #73, #113, #222 ) ;
#97 = PRODUCT_RELATED_PRODUCT_CATEGORY ( 'detail', '', ( #4 ) ) ;
#98 = EDGE_LOOP ( 'NONE', ( #41 ) ) ;
#99 = APPROVAL_DATE_TIME ( #181, #110 ) ;
#100 = COORDINATED_UNIVERSAL_TIME_OFFSET ( 1, 0, .AHEAD. ) ;
#101 = CIRCLE ( 'NONE', #121, 5.000000000000000000 ) ;
#102 = LOCAL_TIME ( 9, 13, 11.00000000000000000, #62 ) ;
#103 = APPROVAL_ROLE ( '' ) ;
#104 = APPROVAL_DATE_TIME ( #20, #187 ) ;
#105 = DIRECTION ( 'NONE',  ( 4.275831445896958607E-31, 1.000000000000000000, 1.224646799147353207E-16 ) ) ;
#106 = CARTESIAN_POINT ( 'NONE',  ( 4.189777606611760026E-14, -1.469576158976823947E-15, 12.00000000000000000 ) ) ;
#107 = ORIENTED_EDGE ( 'NONE', *, *, #38, .F. ) ;
#108 = FACE_BOUND ( 'NONE', #56, .T. ) ;
#109 = DIRECTION ( 'NONE',  ( 1.000000000000000000, 0.0000000000000000000, -3.491481338843132961E-15 ) ) ;
#110 = APPROVAL ( #79, 'UNSPECIFIED' ) ;
#111 = AXIS2_PLACEMENT_3D ( 'NONE', #188, #263, #82 ) ;
#112 = DIRECTION ( 'NONE',  ( 4.275831445896958607E-31, 1.000000000000000000, 1.224646799147353207E-16 ) ) ;
#113 = DIRECTION ( 'NONE',  ( 3.491481338843133355E-15, -1.224646799147353207E-16, 1.000000000000000000 ) ) ;
#114 = DIRECTION ( 'NONE',  ( 4.275831445896958607E-31, 1.000000000000000000, 1.224646799147353207E-16 ) ) ;
#115 = DIRECTION ( 'NONE',  ( 1.000000000000000000, 0.0000000000000000000, -3.491481338843133355E-15 ) ) ;
#116 = CC_DESIGN_PERSON_AND_ORGANIZATION_ASSIGNMENT ( #83, #185, ( #122 ) ) ;
#117 = EDGE_LOOP ( 'NONE', ( #6 ) ) ;
#118 = MECHANICAL_CONTEXT ( 'NONE', #166, 'mechanical' ) ;
#119 = LOCAL_TIME ( 9, 13, 11.00000000000000000, #100 ) ;
#120 = EDGE_LOOP ( 'NONE', ( #127 ) ) ;
#121 = AXIS2_PLACEMENT_3D ( 'NONE', #227, #210, #46 ) ;
#122 = PRODUCT_DEFINITION_FORMATION_WITH_SPECIFIED_SOURCE ( 'ANY', '', #4, .NOT_KNOWN. ) ;
#123 = DATE_TIME_ROLE ( 'classification_date' ) ;
#124 = CARTESIAN_POINT ( 'NONE',  ( 1.745740669421562931E-15, 0.0000000000000000000, 0.4999999999999989453 ) ) ;
#125 = ADVANCED_FACE ( 'NONE', ( #86, #2 ), #184, .T. ) ;
#126 = EDGE_LOOP ( 'NONE', ( #183 ) ) ;
#127 = ORIENTED_EDGE ( 'NONE', *, *, #176, .F. ) ;
#128 = AXIS2_PLACEMENT_3D ( 'NONE', #236, #31, #115 ) ;
#129 = CARTESIAN_POINT ( 'NONE',  ( 0.0000000000000000000, 0.0000000000000000000, 0.0000000000000000000 ) ) ;
#130 = PERSON_AND_ORGANIZATION ( #65, #221 ) ;
#131 = EDGE_LOOP ( 'NONE', ( #35 ) ) ;
#132 = FACE_OUTER_BOUND ( 'NONE', #21, .T. ) ;
#133 = DESIGN_CONTEXT ( 'detailed design', #261, 'design' ) ;
#134 = CARTESIAN_POINT ( 'NONE',  ( 0.0000000000000000000, 0.0000000000000000000, 0.0000000000000000000 ) ) ;
#135 = CYLINDRICAL_SURFACE ( 'NONE', #43, 5.000000000000000000 ) ;
#136 = AXIS2_PLACEMENT_3D ( 'NONE', #193, #153, #144 ) ;
#137 = PRODUCT_DEFINITION ( 'UNKNOWN', '', #122, #133 ) ;
#138 = APPLICATION_PROTOCOL_DEFINITION ( 'international standard', 'config_control_design', 1994, #261 ) ;
#139 = EDGE_LOOP ( 'NONE', ( #240 ) ) ;
#140 = CLOSED_SHELL ( 'NONE', ( #216, #224, #186, #22, #90, #256 ) ) ;
#141 = APPROVAL_STATUS ( 'not_yet_approved' ) ;
#142 = DATE_AND_TIME ( #259, #119 ) ;
#143 = CALENDAR_DATE ( 2021, 18, 11 ) ;
#144 = DIRECTION ( 'NONE',  ( 1.000000000000000000, 0.0000000000000000000, -3.469446951953615372E-15 ) ) ;
#145 = AXIS2_PLACEMENT_3D ( 'NONE', #51, #30, #47 ) ;
#146 = EDGE_CURVE ( 'NONE', #195, #195, #152, .T. ) ;
#147 = CARTESIAN_POINT ( 'NONE',  ( -1.282749433769087757E-30, 0.0000000000000000000, -3.673940397442059868E-16 ) ) ;
#148 = PERSON_AND_ORGANIZATION_ROLE ( 'design_supplier' ) ;
#149 = CARTESIAN_POINT ( 'NONE',  ( 4.189777606611760026E-14, 0.0000000000000000000, 12.00000000000000000 ) ) ;
#150 = COORDINATED_UNIVERSAL_TIME_OFFSET ( 1, 0, .AHEAD. ) ;
#151 = CARTESIAN_POINT ( 'NONE',  ( 1.047444401652940007E-13, 0.0000000000000000000, 30.00000000000000000 ) ) ;
#152 = CIRCLE ( 'NONE', #205, 4.500000000000006217 ) ;
#153 = DIRECTION ( 'NONE',  ( 3.491481338843133355E-15, -0.0000000000000000000, 1.000000000000000000 ) ) ;
#154 = PLANE ( 'NONE',  #145 ) ;
#155 = DIRECTION ( 'NONE',  ( 0.0000000000000000000, 1.000000000000000000, 0.0000000000000000000 ) ) ;
#156 = VERTEX_POINT ( 'NONE', #28 ) ;
#157 = FACE_OUTER_BOUND ( 'NONE', #80, .T. ) ;
#158 = APPROVAL_PERSON_ORGANIZATION ( #17, #110, #95 ) ;
#159 = DATE_TIME_ROLE ( 'creation_date' ) ;
#160 = ORIENTED_EDGE ( 'NONE', *, *, #196, .T. ) ;
#161 = PERSON_AND_ORGANIZATION ( #65, #221 ) ;
#162 = AXIS2_PLACEMENT_3D ( 'NONE', #147, #168, #109 ) ;
#163 = APPROVAL_PERSON_ORGANIZATION ( #192, #187, #103 ) ;
#164 = MANIFOLD_SOLID_BREP ( 'Corps-Déplacer/Copier1[1]', #140 ) ;
#165 = ADVANCED_FACE ( 'NONE', ( #209, #23 ), #85, .T. ) ;
#166 = APPLICATION_CONTEXT ( 'configuration controlled 3d designs of mechanical parts and assemblies' ) ;
#167 = ADVANCED_FACE ( 'NONE', ( #42 ), #26, .T. ) ;
#168 = DIRECTION ( 'NONE',  ( 3.491481338843133355E-15, -0.0000000000000000000, 1.000000000000000000 ) ) ;
#169 = SHAPE_DEFINITION_REPRESENTATION ( #37, #226 ) ;
#170 = EDGE_LOOP ( 'NONE', ( #208 ) ) ;
#171 = ORIENTED_EDGE ( 'NONE', *, *, #146, .F. ) ;
#172 = ORIENTED_EDGE ( 'NONE', *, *, #48, .T. ) ;
#173 = CC_DESIGN_SECURITY_CLASSIFICATION ( #232, ( #122 ) ) ;
#174 = FACE_OUTER_BOUND ( 'NONE', #87, .T. ) ;
#175 = VERTEX_POINT ( 'NONE', #178 ) ;
#176 = EDGE_CURVE ( 'NONE', #201, #201, #191, .T. ) ;
#177 = APPROVAL ( #141, 'UNSPECIFIED' ) ;
#178 = CARTESIAN_POINT ( 'NONE',  ( 2.601153597438134539E-13, 4.999999999999990230, 74.50000000000001421 ) ) ;
#179 = CLOSED_SHELL ( 'NONE', ( #165, #167, #125, #255 ) ) ;
#180 = LOCAL_TIME ( 9, 13, 11.00000000000000000, #204 ) ;
#181 = DATE_AND_TIME ( #16, #180 ) ;
#182 = DIRECTION ( 'NONE',  ( 0.0000000000000000000, 0.0000000000000000000, 1.000000000000000000 ) ) ;
#183 = ORIENTED_EDGE ( 'NONE', *, *, #71, .F. ) ;
#184 = TOROIDAL_SURFACE ( 'NONE', #93, 4.500000000000000888, 0.4999999999999993339 ) ;
#185 = PERSON_AND_ORGANIZATION_ROLE ( 'creator' ) ;
#186 = ADVANCED_FACE ( 'NONE', ( #132 ), #77, .F. ) ;
#187 = APPROVAL ( #245, 'UNSPECIFIED' ) ;
#188 = CARTESIAN_POINT ( 'NONE',  ( 4.189777606611760026E-14, 3.749399456654641830E-32, 12.00000000000000000 ) ) ;
#189 = CALENDAR_DATE ( 2021, 18, 11 ) ;
#190 = DIRECTION ( 'NONE',  ( -3.491481338843133355E-15, 1.224646799147353207E-16, -1.000000000000000000 ) ) ;
#191 = CIRCLE ( 'NONE', #218, 4.999999999999999112 ) ;
#192 = PERSON_AND_ORGANIZATION ( #65, #221 ) ;
#193 = CARTESIAN_POINT ( 'NONE',  ( 1.095452270062032538E-13, 0.0000000000000000000, 31.37499999999998579 ) ) ;
#194 = ORIENTED_EDGE ( 'NONE', *, *, #196, .F. ) ;
#195 = VERTEX_POINT ( 'NONE', #8 ) ;
#196 = EDGE_CURVE ( 'NONE', #91, #91, #15, .T. ) ;
#197 = CC_DESIGN_DATE_AND_TIME_ASSIGNMENT ( #262, #123, ( #232 ) ) ;
#198 = CARTESIAN_POINT ( 'NONE',  ( 4.500000000000000888, 0.0000000000000000000, -1.614534689378830503E-14 ) ) ;
#199 = PLANE ( 'NONE',  #96 ) ;
#200 = APPROVAL_PERSON_ORGANIZATION ( #58, #177, #18 ) ;
#201 = VERTEX_POINT ( 'NONE', #94 ) ;
#202 = CARTESIAN_POINT ( 'NONE',  ( 2.618611004132350143E-13, 3.374459510989170860E-32, 75.00000000000000000 ) ) ;
#203 = EDGE_LOOP ( 'NONE', ( #107 ) ) ;
#204 = COORDINATED_UNIVERSAL_TIME_OFFSET ( 1, 0, .AHEAD. ) ;
#205 = AXIS2_PLACEMENT_3D ( 'NONE', #215, #25, #40 ) ;
#206 = DIRECTION ( 'NONE',  ( 1.000000000000000000, 0.0000000000000000000, 0.0000000000000000000 ) ) ;
#207 = PERSON_AND_ORGANIZATION_ROLE ( 'design_owner' ) ;
#208 = ORIENTED_EDGE ( 'NONE', *, *, #29, .F. ) ;
#209 = FACE_OUTER_BOUND ( 'NONE', #89, .T. ) ;
#210 = DIRECTION ( 'NONE',  ( 3.491481338843133355E-15, -0.0000000000000000000, 1.000000000000000000 ) ) ;
#211 = EDGE_LOOP ( 'NONE', ( #172 ) ) ;
#212 = AXIS2_PLACEMENT_3D ( 'NONE', #149, #24, #44 ) ;
#213 = SECURITY_CLASSIFICATION_LEVEL ( 'unclassified' ) ;
#214 = FACE_OUTER_BOUND ( 'NONE', #117, .T. ) ;
#215 = CARTESIAN_POINT ( 'NONE',  ( 2.618611004132350143E-13, -9.184850993605148733E-15, 75.00000000000000000 ) ) ;
#216 = ADVANCED_FACE ( 'NONE', ( #251, #70 ), #135, .T. ) ;
#217 = CARTESIAN_POINT ( 'NONE',  ( 4.625000000000041744, 0.0000000000000000000, 11.99999999999998401 ) ) ;
#218 = AXIS2_PLACEMENT_3D ( 'NONE', #3, #244, #5 ) ;
#219 = CARTESIAN_POINT ( 'NONE',  ( 2.601153597438134539E-13, -9.123618653647782737E-15, 74.50000000000001421 ) ) ;
#220 = FACE_BOUND ( 'NONE', #131, .T. ) ;
#221 = ORGANIZATION ( 'UNSPECIFIED', 'UNSPECIFIED', '' ) ;
#222 = DIRECTION ( 'NONE',  ( -4.275831445896958607E-31, -1.000000000000000000, -1.224646799147353207E-16 ) ) ;
#223 = COORDINATED_UNIVERSAL_TIME_OFFSET ( 1, 0, .AHEAD. ) ;
#224 = ADVANCED_FACE ( 'NONE', ( #220, #174 ), #67, .T. ) ;
#225 = CC_DESIGN_PERSON_AND_ORGANIZATION_ASSIGNMENT ( #161, #242, ( #137 ) ) ;
#226 = ADVANCED_BREP_SHAPE_REPRESENTATION ( '56636', ( #164, #78, #11 ), #36 ) ;
#227 = CARTESIAN_POINT ( 'NONE',  ( 1.060537456673601583E-13, 0.0000000000000000000, 30.37499999999999645 ) ) ;
#228 = ORIENTED_EDGE ( 'NONE', *, *, #176, .T. ) ;
#229 = PERSON_AND_ORGANIZATION ( #65, #221 ) ;
#230 = EDGE_LOOP ( 'NONE', ( #81 ) ) ;
#231 = DIRECTION ( 'NONE',  ( 1.000000000000000000, 0.0000000000000000000, -3.750753461571474649E-15 ) ) ;
#232 = SECURITY_CLASSIFICATION ( '', '', #213 ) ;
#233 = APPROVAL_DATE_TIME ( #142, #177 ) ;
#234 = DIRECTION ( 'NONE',  ( 1.000000000000000000, 0.0000000000000000000, -3.491481338843133355E-15 ) ) ;
#235 = CC_DESIGN_PERSON_AND_ORGANIZATION_ASSIGNMENT ( #229, #148, ( #122 ) ) ;
#236 = CARTESIAN_POINT ( 'NONE',  ( -1.514188661106529085E-30, 0.0000000000000000000, -4.336808689942017736E-16 ) ) ;
#237 = VERTEX_POINT ( 'NONE', #76 ) ;
#238 = APPLICATION_PROTOCOL_DEFINITION ( 'international standard', 'config_control_design', 1994, #166 ) ;
#239 = EDGE_CURVE ( 'NONE', #175, #175, #1, .T. ) ;
#240 = ORIENTED_EDGE ( 'NONE', *, *, #48, .F. ) ;
#241 = DATE_AND_TIME ( #34, #252 ) ;
#242 = PERSON_AND_ORGANIZATION_ROLE ( 'creator' ) ;
#243 = DIRECTION ( 'NONE',  ( 0.0000000000000000000, 1.000000000000000000, 0.0000000000000000000 ) ) ;
#244 = DIRECTION ( 'NONE',  ( 3.491481338843133355E-15, -0.0000000000000000000, 1.000000000000000000 ) ) ;
#245 = APPROVAL_STATUS ( 'not_yet_approved' ) ;
#246 = EDGE_LOOP ( 'NONE', ( #160 ) ) ;
#247 = ORIENTED_EDGE ( 'NONE', *, *, #239, .F. ) ;
#248 = DIRECTION ( 'NONE',  ( 3.491481338843133355E-15, -0.0000000000000000000, 1.000000000000000000 ) ) ;
#249 = CC_DESIGN_APPROVAL ( #110, ( #137 ) ) ;
#250 = CARTESIAN_POINT ( 'NONE',  ( 2.601153597438134539E-13, -9.123618653647782737E-15, 74.50000000000001421 ) ) ;
#251 = FACE_OUTER_BOUND ( 'NONE', #230, .T. ) ;
#252 = LOCAL_TIME ( 9, 13, 11.00000000000000000, #223 ) ;
#253 = VERTEX_POINT ( 'NONE', #217 ) ;
#254 =( NAMED_UNIT ( * ) SI_UNIT ( $, .STERADIAN. ) SOLID_ANGLE_UNIT ( ) );
#255 = ADVANCED_FACE ( 'NONE', ( #157 ), #154, .T. ) ;
#256 = ADVANCED_FACE ( 'NONE', ( #12 ), #199, .F. ) ;
#257 = AXIS2_PLACEMENT_3D ( 'NONE', #250, #92, #155 ) ;
#258 = CARTESIAN_POINT ( 'NONE',  ( 0.0000000000000000000, 0.0000000000000000000, 0.0000000000000000000 ) ) ;
#259 = CALENDAR_DATE ( 2021, 18, 11 ) ;
#260 = CC_DESIGN_APPROVAL ( #187, ( #232 ) ) ;
#261 = APPLICATION_CONTEXT ( 'configuration controlled 3d designs of mechanical parts and assemblies' ) ;
#262 = DATE_AND_TIME ( #189, #102 ) ;
#263 = DIRECTION ( 'NONE',  ( 3.491481338843133355E-15, -1.224646799147353207E-16, 1.000000000000000000 ) ) ;
ENDSEC;
END-ISO-10303-21;
