ISO-10303-21;
HEADER;
FILE_DESCRIPTION (( 'STEP AP203' ),
    '1' );
FILE_NAME ('56635.step',
    '2021-11-18T08:13:09',
    ( '' ),
    ( '' ),
    'SwSTEP 2.0',
    'SolidWorks 2019',
    '' );
FILE_SCHEMA (( 'CONFIG_CONTROL_DESIGN' ));
ENDSEC;

DATA;
#1 = DIRECTION ( 'NONE',  ( -3.491481338843133355E-15, 1.224646799147353207E-16, -1.000000000000000000 ) ) ;
#2 = DIRECTION ( 'NONE',  ( 3.491481338843133355E-15, -0.0000000000000000000, 1.000000000000000000 ) ) ;
#3 = ADVANCED_FACE ( 'NONE', ( #40 ), #19, .F. ) ;
#4 = EDGE_LOOP ( 'NONE', ( #41 ) ) ;
#5 = CC_DESIGN_APPROVAL ( #197, ( #58 ) ) ;
#6 = ORIENTED_EDGE ( 'NONE', *, *, #115, .F. ) ;
#7 = CARTESIAN_POINT ( 'NONE',  ( 3.750000000000097256, 0.0000000000000000000, 27.99999999999998579 ) ) ;
#8 = APPROVAL_STATUS ( 'not_yet_approved' ) ;
#9 = COORDINATED_UNIVERSAL_TIME_OFFSET ( 1, 0, .AHEAD. ) ;
#10 = CC_DESIGN_PERSON_AND_ORGANIZATION_ASSIGNMENT ( #127, #213, ( #144 ) ) ;
#11 = ORIENTED_EDGE ( 'NONE', *, *, #158, .F. ) ;
#12 = DATE_AND_TIME ( #258, #240 ) ;
#13 = APPROVAL_STATUS ( 'not_yet_approved' ) ;
#14 = AXIS2_PLACEMENT_3D ( 'NONE', #20, #15, #36 ) ;
#15 = DIRECTION ( 'NONE',  ( 3.491481338843133355E-15, -0.0000000000000000000, 1.000000000000000000 ) ) ;
#16 = MANIFOLD_SOLID_BREP ( 'Corps-Déplacer/Copier1[2]', #183 ) ;
#17 = CARTESIAN_POINT ( 'NONE',  ( 2.601153597438134034E-13, -9.123618653647779582E-15, 74.49999999999998579 ) ) ;
#18 = ADVANCED_FACE ( 'NONE', ( #57 ), #100, .T. ) ;
#19 = PLANE ( 'NONE',  #77 ) ;
#20 = CARTESIAN_POINT ( 'NONE',  ( 9.776147748760773395E-14, 0.0000000000000000000, 28.00000000000000000 ) ) ;
#21 = EDGE_LOOP ( 'NONE', ( #164 ) ) ;
#22 = AXIS2_PLACEMENT_3D ( 'NONE', #141, #230, #165 ) ;
#23 = DIRECTION ( 'NONE',  ( 3.491481338843133355E-15, -0.0000000000000000000, 1.000000000000000000 ) ) ;
#24 = CARTESIAN_POINT ( 'NONE',  ( 2.618611004132350143E-13, 3.499999999999996003, 75.00000000000000000 ) ) ;
#25 = LOCAL_TIME ( 9, 13, 9.000000000000000000, #9 ) ;
#26 = CARTESIAN_POINT ( 'NONE',  ( 3.491481338843129805E-15, 0.0000000000000000000, 0.9999999999999988898 ) ) ;
#27 = PERSON ( 'UNSPECIFIED', 'UNSPECIFIED', 'UNSPECIFIED', ('UNSPECIFIED'), ('UNSPECIFIED'), ('UNSPECIFIED') ) ;
#28 =( NAMED_UNIT ( * ) SI_UNIT ( $, .STERADIAN. ) SOLID_ANGLE_UNIT ( ) );
#29 = VERTEX_POINT ( 'NONE', #251 ) ;
#30 =( GEOMETRIC_REPRESENTATION_CONTEXT ( 3 ) GLOBAL_UNCERTAINTY_ASSIGNED_CONTEXT ( ( #143 ) ) GLOBAL_UNIT_ASSIGNED_CONTEXT ( ( #227, #182, #28 ) ) REPRESENTATION_CONTEXT ( 'NONE', 'WORKASPACE' ) );
#31 = DATE_AND_TIME ( #255, #184 ) ;
#32 = PERSON_AND_ORGANIZATION_ROLE ( 'creator' ) ;
#33 = SECURITY_CLASSIFICATION_LEVEL ( 'unclassified' ) ;
#34 = CARTESIAN_POINT ( 'NONE',  ( 3.491481338843133355E-14, 2.999519565323713574E-32, 10.00000000000000000 ) ) ;
#35 = CLOSED_SHELL ( 'NONE', ( #131, #93, #3, #212, #56, #178 ) ) ;
#36 = DIRECTION ( 'NONE',  ( 1.000000000000000000, 0.0000000000000000000, -3.700743415417188731E-15 ) ) ;
#37 = FACE_BOUND ( 'NONE', #87, .T. ) ;
#38 = DIRECTION ( 'NONE',  ( 3.491481338843133355E-15, -1.224646799147353207E-16, 1.000000000000000000 ) ) ;
#39 = APPROVAL ( #254, 'UNSPECIFIED' ) ;
#40 = FACE_OUTER_BOUND ( 'NONE', #4, .T. ) ;
#41 = ORIENTED_EDGE ( 'NONE', *, *, #238, .F. ) ;
#42 = VERTEX_POINT ( 'NONE', #125 ) ;
#43 = EDGE_LOOP ( 'NONE', ( #11 ) ) ;
#44 = FACE_OUTER_BOUND ( 'NONE', #185, .T. ) ;
#45 = EDGE_CURVE ( 'NONE', #95, #95, #151, .T. ) ;
#46 = CIRCLE ( 'NONE', #155, 3.500000000000005329 ) ;
#47 = APPLICATION_PROTOCOL_DEFINITION ( 'international standard', 'config_control_design', 1994, #188 ) ;
#48 = EDGE_CURVE ( 'NONE', #146, #146, #128, .T. ) ;
#49 = AXIS2_PLACEMENT_3D ( 'NONE', #26, #109, #110 ) ;
#50 = COORDINATED_UNIVERSAL_TIME_OFFSET ( 1, 0, .AHEAD. ) ;
#51 = ORIENTED_EDGE ( 'NONE', *, *, #98, .T. ) ;
#52 = PERSON_AND_ORGANIZATION_ROLE ( 'creator' ) ;
#53 = DATE_AND_TIME ( #191, #84 ) ;
#54 = PRODUCT_DEFINITION_SHAPE ( 'NONE', 'NONE',  #61 ) ;
#55 = CIRCLE ( 'NONE', #214, 4.000000000000000000 ) ;
#56 = ADVANCED_FACE ( 'NONE', ( #159, #244 ), #224, .T. ) ;
#57 = FACE_OUTER_BOUND ( 'NONE', #235, .T. ) ;
#58 = SECURITY_CLASSIFICATION ( '', '', #33 ) ;
#59 = FACE_OUTER_BOUND ( 'NONE', #207, .T. ) ;
#60 = PLANE ( 'NONE',  #177 ) ;
#61 = PRODUCT_DEFINITION ( 'UNKNOWN', '', #94, #229 ) ;
#62 = CARTESIAN_POINT ( 'NONE',  ( 9.863434782231852675E-14, 0.0000000000000000000, 28.25000000000000000 ) ) ;
#63 = ORIENTED_EDGE ( 'NONE', *, *, #115, .T. ) ;
#64 = AXIS2_PLACEMENT_3D ( 'NONE', #104, #116, #196 ) ;
#65 = DIRECTION ( 'NONE',  ( 3.491481338843133355E-15, -0.0000000000000000000, 1.000000000000000000 ) ) ;
#66 = CIRCLE ( 'NONE', #90, 3.999999999999999112 ) ;
#67 = ADVANCED_BREP_SHAPE_REPRESENTATION ( '56635', ( #108, #16, #22 ), #30 ) ;
#68 = FACE_OUTER_BOUND ( 'NONE', #21, .T. ) ;
#69 = ADVANCED_FACE ( 'NONE', ( #85 ), #103, .T. ) ;
#70 = ORIENTED_EDGE ( 'NONE', *, *, #105, .T. ) ;
#71 = MECHANICAL_CONTEXT ( 'NONE', #188, 'mechanical' ) ;
#72 = APPROVAL_PERSON_ORGANIZATION ( #129, #197, #194 ) ;
#73 = ORIENTED_EDGE ( 'NONE', *, *, #234, .T. ) ;
#74 = CC_DESIGN_PERSON_AND_ORGANIZATION_ASSIGNMENT ( #96, #32, ( #61 ) ) ;
#75 = DIRECTION ( 'NONE',  ( 0.0000000000000000000, 1.000000000000000000, 0.0000000000000000000 ) ) ;
#76 = PERSON_AND_ORGANIZATION ( #27, #173 ) ;
#77 = AXIS2_PLACEMENT_3D ( 'NONE', #101, #263, #138 ) ;
#78 = APPROVAL_PERSON_ORGANIZATION ( #218, #39, #195 ) ;
#79 = AXIS2_PLACEMENT_3D ( 'NONE', #137, #82, #222 ) ;
#80 = APPROVAL ( #8, 'UNSPECIFIED' ) ;
#81 = CARTESIAN_POINT ( 'NONE',  ( 1.021258291611616475E-13, 0.0000000000000000000, 29.25000000000000000 ) ) ;
#82 = DIRECTION ( 'NONE',  ( -3.491481338843133355E-15, 1.224646799147353207E-16, -1.000000000000000000 ) ) ;
#83 = CONICAL_SURFACE ( 'NONE', #113, 3.999999999999999112, 0.7853981633974279619 ) ;
#84 = LOCAL_TIME ( 9, 13, 9.000000000000000000, #237 ) ;
#85 = FACE_OUTER_BOUND ( 'NONE', #43, .T. ) ;
#86 = DIRECTION ( 'NONE',  ( -3.491481338843133355E-15, 1.224646799147353207E-16, -1.000000000000000000 ) ) ;
#87 = EDGE_LOOP ( 'NONE', ( #209 ) ) ;
#88 = DIRECTION ( 'NONE',  ( 1.000000000000000000, 0.0000000000000000000, -3.491481338843133355E-15 ) ) ;
#89 = DIRECTION ( 'NONE',  ( -3.491481338843133355E-15, 1.224646799147353207E-16, -1.000000000000000000 ) ) ;
#90 = AXIS2_PLACEMENT_3D ( 'NONE', #17, #119, #262 ) ;
#91 = ORIENTED_EDGE ( 'NONE', *, *, #105, .F. ) ;
#92 = CARTESIAN_POINT ( 'NONE',  ( 4.000000000000003553, 0.0000000000000000000, 0.9999999999999850120 ) ) ;
#93 = ADVANCED_FACE ( 'NONE', ( #37, #242 ), #83, .T. ) ;
#94 = PRODUCT_DEFINITION_FORMATION_WITH_SPECIFIED_SOURCE ( 'ANY', '', #144, .NOT_KNOWN. ) ;
#95 = VERTEX_POINT ( 'NONE', #92 ) ;
#96 = PERSON_AND_ORGANIZATION ( #27, #173 ) ;
#97 = PRODUCT_RELATED_PRODUCT_CATEGORY ( 'detail', '', ( #144 ) ) ;
#98 = EDGE_CURVE ( 'NONE', #249, #249, #217, .T. ) ;
#99 = AXIS2_PLACEMENT_3D ( 'NONE', #121, #2, #154 ) ;
#100 = PLANE ( 'NONE',  #145 ) ;
#101 = CARTESIAN_POINT ( 'NONE',  ( 2.618611004132350143E-13, 2.624579619658241508E-32, 75.00000000000000000 ) ) ;
#102 = DIRECTION ( 'NONE',  ( 3.491481338843133355E-15, -0.0000000000000000000, 1.000000000000000000 ) ) ;
#103 = PLANE ( 'NONE',  #259 ) ;
#104 = CARTESIAN_POINT ( 'NONE',  ( 3.491481338843129805E-15, 0.0000000000000000000, 0.9999999999999988898 ) ) ;
#105 = EDGE_CURVE ( 'NONE', #42, #42, #55, .T. ) ;
#106 = CARTESIAN_POINT ( 'NONE',  ( 3.750000000000035083, 0.0000000000000000000, 9.999999999999985789 ) ) ;
#107 = EDGE_LOOP ( 'NONE', ( #70 ) ) ;
#108 = MANIFOLD_SOLID_BREP ( 'Corps-Déplacer/Copier1[1]', #35 ) ;
#109 = DIRECTION ( 'NONE',  ( 3.491481338843133355E-15, -0.0000000000000000000, 1.000000000000000000 ) ) ;
#110 = DIRECTION ( 'NONE',  ( 1.000000000000000000, 0.0000000000000000000, -3.491481338843133355E-15 ) ) ;
#111 = APPLICATION_PROTOCOL_DEFINITION ( 'international standard', 'config_control_design', 1994, #142 ) ;
#112 = DATE_TIME_ROLE ( 'creation_date' ) ;
#113 = AXIS2_PLACEMENT_3D ( 'NONE', #241, #86, #157 ) ;
#114 = CALENDAR_DATE ( 2021, 18, 11 ) ;
#115 = EDGE_CURVE ( 'NONE', #187, #187, #66, .T. ) ;
#116 = DIRECTION ( 'NONE',  ( 3.491481338843133355E-15, -0.0000000000000000000, 1.000000000000000000 ) ) ;
#117 = LOCAL_TIME ( 9, 13, 9.000000000000000000, #150 ) ;
#118 = CARTESIAN_POINT ( 'NONE',  ( -8.551662891793915461E-31, 2.999519565323715216E-32, -2.449293598294706414E-16 ) ) ;
#119 = DIRECTION ( 'NONE',  ( -3.491481338843133355E-15, 1.224646799147353207E-16, -1.000000000000000000 ) ) ;
#120 = CYLINDRICAL_SURFACE ( 'NONE', #134, 3.750000000000000000 ) ;
#121 = CARTESIAN_POINT ( 'NONE',  ( -3.785471652766322976E-30, 0.0000000000000000000, -1.084202172485504434E-15 ) ) ;
#122 = CC_DESIGN_PERSON_AND_ORGANIZATION_ASSIGNMENT ( #76, #149, ( #58 ) ) ;
#123 = CARTESIAN_POINT ( 'NONE',  ( 3.491481338843133355E-14, 3.999999999999999112, 10.00000000000000000 ) ) ;
#124 = EDGE_LOOP ( 'NONE', ( #91 ) ) ;
#125 = CARTESIAN_POINT ( 'NONE',  ( 4.000000000000098588, 0.0000000000000000000, 28.24999999999998579 ) ) ;
#126 = ORIENTED_EDGE ( 'NONE', *, *, #234, .F. ) ;
#127 = PERSON_AND_ORGANIZATION ( #27, #173 ) ;
#128 = CIRCLE ( 'NONE', #14, 3.750000000000000000 ) ;
#129 = PERSON_AND_ORGANIZATION ( #27, #173 ) ;
#130 = DATE_TIME_ROLE ( 'classification_date' ) ;
#131 = ADVANCED_FACE ( 'NONE', ( #245, #181 ), #243, .T. ) ;
#132 = APPROVAL_DATE_TIME ( #239, #80 ) ;
#133 = DIRECTION ( 'NONE',  ( 1.000000000000000000, 0.0000000000000000000, -3.700743415417188731E-15 ) ) ;
#134 = AXIS2_PLACEMENT_3D ( 'NONE', #204, #65, #88 ) ;
#135 = CARTESIAN_POINT ( 'NONE',  ( 3.491481338843133355E-14, 2.999519565323713574E-32, 10.00000000000000000 ) ) ;
#136 = FACE_OUTER_BOUND ( 'NONE', #205, .T. ) ;
#137 = CARTESIAN_POINT ( 'NONE',  ( 0.0000000000000000000, 0.0000000000000000000, 0.0000000000000000000 ) ) ;
#138 = DIRECTION ( 'NONE',  ( 4.275831445896958607E-31, 1.000000000000000000, 1.224646799147353207E-16 ) ) ;
#139 = VERTEX_POINT ( 'NONE', #123 ) ;
#140 = EDGE_LOOP ( 'NONE', ( #6 ) ) ;
#141 = CARTESIAN_POINT ( 'NONE',  ( 0.0000000000000000000, 0.0000000000000000000, 0.0000000000000000000 ) ) ;
#142 = APPLICATION_CONTEXT ( 'configuration controlled 3d designs of mechanical parts and assemblies' ) ;
#143 = UNCERTAINTY_MEASURE_WITH_UNIT (LENGTH_MEASURE( 1.000000000000000082E-05 ), #227, 'distance_accuracy_value', 'NONE');
#144 = PRODUCT ( '56635', '56635', '', ( #71 ) ) ;
#145 = AXIS2_PLACEMENT_3D ( 'NONE', #34, #153, #200 ) ;
#146 = VERTEX_POINT ( 'NONE', #7 ) ;
#147 = VERTEX_POINT ( 'NONE', #24 ) ;
#148 = SHAPE_DEFINITION_REPRESENTATION ( #54, #67 ) ;
#149 = PERSON_AND_ORGANIZATION_ROLE ( 'classification_officer' ) ;
#150 = COORDINATED_UNIVERSAL_TIME_OFFSET ( 1, 0, .AHEAD. ) ;
#151 = CIRCLE ( 'NONE', #64, 4.000000000000000000 ) ;
#152 = CIRCLE ( 'NONE', #99, 3.000000000000000000 ) ;
#153 = DIRECTION ( 'NONE',  ( 3.491481338843133355E-15, -1.224646799147353207E-16, 1.000000000000000000 ) ) ;
#154 = DIRECTION ( 'NONE',  ( 1.000000000000000000, 0.0000000000000000000, -3.491481338843133355E-15 ) ) ;
#155 = AXIS2_PLACEMENT_3D ( 'NONE', #210, #89, #75 ) ;
#156 = DIRECTION ( 'NONE',  ( 3.491481338843133355E-15, -0.0000000000000000000, 1.000000000000000000 ) ) ;
#157 = DIRECTION ( 'NONE',  ( 0.0000000000000000000, 1.000000000000000000, 0.0000000000000000000 ) ) ;
#158 = EDGE_CURVE ( 'NONE', #29, #29, #152, .T. ) ;
#159 = FACE_OUTER_BOUND ( 'NONE', #124, .T. ) ;
#160 = EDGE_LOOP ( 'NONE', ( #228 ) ) ;
#161 = AXIS2_PLACEMENT_3D ( 'NONE', #261, #156, #133 ) ;
#162 = DIRECTION ( 'NONE',  ( 0.0000000000000000000, 1.000000000000000000, 0.0000000000000000000 ) ) ;
#163 = CC_DESIGN_SECURITY_CLASSIFICATION ( #58, ( #94 ) ) ;
#164 = ORIENTED_EDGE ( 'NONE', *, *, #45, .F. ) ;
#165 = DIRECTION ( 'NONE',  ( 1.000000000000000000, 0.0000000000000000000, 0.0000000000000000000 ) ) ;
#166 = CC_DESIGN_APPROVAL ( #80, ( #61 ) ) ;
#167 = APPROVAL_ROLE ( '' ) ;
#168 = CC_DESIGN_PERSON_AND_ORGANIZATION_ASSIGNMENT ( #192, #52, ( #94 ) ) ;
#169 = PERSON_AND_ORGANIZATION_ROLE ( 'design_supplier' ) ;
#170 = CC_DESIGN_APPROVAL ( #39, ( #94 ) ) ;
#171 = PERSON_AND_ORGANIZATION ( #27, #173 ) ;
#172 = CALENDAR_DATE ( 2021, 18, 11 ) ;
#173 = ORGANIZATION ( 'UNSPECIFIED', 'UNSPECIFIED', '' ) ;
#174 = DIRECTION ( 'NONE',  ( 4.275831445896958607E-31, 1.000000000000000000, 1.224646799147353207E-16 ) ) ;
#175 = ORIENTED_EDGE ( 'NONE', *, *, #98, .F. ) ;
#176 = DIRECTION ( 'NONE',  ( 1.000000000000000000, 0.0000000000000000000, -3.469446951953614978E-15 ) ) ;
#177 = AXIS2_PLACEMENT_3D ( 'NONE', #135, #38, #220 ) ;
#178 = ADVANCED_FACE ( 'NONE', ( #59 ), #60, .F. ) ;
#179 = ORIENTED_EDGE ( 'NONE', *, *, #48, .F. ) ;
#180 = EDGE_LOOP ( 'NONE', ( #248 ) ) ;
#181 = FACE_OUTER_BOUND ( 'NONE', #107, .T. ) ;
#182 =( NAMED_UNIT ( * ) PLANE_ANGLE_UNIT ( ) SI_UNIT ( $, .RADIAN. ) );
#183 = CLOSED_SHELL ( 'NONE', ( #246, #18, #257, #69 ) ) ;
#184 = LOCAL_TIME ( 9, 13, 9.000000000000000000, #50 ) ;
#185 = EDGE_LOOP ( 'NONE', ( #73 ) ) ;
#186 = CC_DESIGN_PERSON_AND_ORGANIZATION_ASSIGNMENT ( #171, #169, ( #94 ) ) ;
#187 = VERTEX_POINT ( 'NONE', #253 ) ;
#188 = APPLICATION_CONTEXT ( 'configuration controlled 3d designs of mechanical parts and assemblies' ) ;
#189 = FACE_OUTER_BOUND ( 'NONE', #160, .T. ) ;
#190 = PERSON_AND_ORGANIZATION ( #27, #173 ) ;
#191 = CALENDAR_DATE ( 2021, 18, 11 ) ;
#192 = PERSON_AND_ORGANIZATION ( #27, #173 ) ;
#193 = TOROIDAL_SURFACE ( 'NONE', #49, 3.000000000000000000, 1.000000000000000000 ) ;
#194 = APPROVAL_ROLE ( '' ) ;
#195 = APPROVAL_ROLE ( '' ) ;
#196 = DIRECTION ( 'NONE',  ( 1.000000000000000000, 0.0000000000000000000, -3.469446951953614189E-15 ) ) ;
#197 = APPROVAL ( #13, 'UNSPECIFIED' ) ;
#198 = APPROVAL_PERSON_ORGANIZATION ( #190, #80, #167 ) ;
#199 = DIRECTION ( 'NONE',  ( 1.000000000000000000, 0.0000000000000000000, -3.469446951953614189E-15 ) ) ;
#200 = DIRECTION ( 'NONE',  ( -4.275831445896958607E-31, -1.000000000000000000, -1.224646799147353207E-16 ) ) ;
#201 = FACE_OUTER_BOUND ( 'NONE', #221, .T. ) ;
#202 = EDGE_LOOP ( 'NONE', ( #63 ) ) ;
#203 = AXIS2_PLACEMENT_3D ( 'NONE', #252, #206, #247 ) ;
#204 = CARTESIAN_POINT ( 'NONE',  ( -1.282749433769087757E-30, 0.0000000000000000000, -3.673940397442059868E-16 ) ) ;
#205 = EDGE_LOOP ( 'NONE', ( #51 ) ) ;
#206 = DIRECTION ( 'NONE',  ( -3.491481338843133355E-15, 1.224646799147353207E-16, -1.000000000000000000 ) ) ;
#207 = EDGE_LOOP ( 'NONE', ( #175 ) ) ;
#208 = CARTESIAN_POINT ( 'NONE',  ( 3.491481338843133355E-14, -1.224646799147353256E-15, 10.00000000000000000 ) ) ;
#209 = ORIENTED_EDGE ( 'NONE', *, *, #238, .T. ) ;
#210 = CARTESIAN_POINT ( 'NONE',  ( 2.618611004132350143E-13, -9.184850993605148733E-15, 75.00000000000000000 ) ) ;
#211 = DIRECTION ( 'NONE',  ( -3.491481338843133355E-15, 1.224646799147353207E-16, -1.000000000000000000 ) ) ;
#212 = ADVANCED_FACE ( 'NONE', ( #136, #201 ), #120, .T. ) ;
#213 = PERSON_AND_ORGANIZATION_ROLE ( 'design_owner' ) ;
#214 = AXIS2_PLACEMENT_3D ( 'NONE', #62, #23, #199 ) ;
#215 = DATE_AND_TIME ( #114, #25 ) ;
#216 = APPROVAL_DATE_TIME ( #12, #197 ) ;
#217 = CIRCLE ( 'NONE', #161, 3.750000000000000000 ) ;
#218 = PERSON_AND_ORGANIZATION ( #27, #173 ) ;
#219 = CC_DESIGN_DATE_AND_TIME_ASSIGNMENT ( #31, #112, ( #61 ) ) ;
#220 = DIRECTION ( 'NONE',  ( -4.275831445896958607E-31, -1.000000000000000000, -1.224646799147353207E-16 ) ) ;
#221 = EDGE_LOOP ( 'NONE', ( #179 ) ) ;
#222 = DIRECTION ( 'NONE',  ( 4.275831445896958607E-31, 1.000000000000000000, 1.224646799147353207E-16 ) ) ;
#223 = ORIENTED_EDGE ( 'NONE', *, *, #45, .T. ) ;
#224 = CONICAL_SURFACE ( 'NONE', #231, 4.999999999999999112, 0.7853981633974490562 ) ;
#225 = FACE_OUTER_BOUND ( 'NONE', #250, .T. ) ;
#226 = CC_DESIGN_DATE_AND_TIME_ASSIGNMENT ( #53, #130, ( #58 ) ) ;
#227 =( LENGTH_UNIT ( ) NAMED_UNIT ( * ) SI_UNIT ( .MILLI., .METRE. ) );
#228 = ORIENTED_EDGE ( 'NONE', *, *, #158, .T. ) ;
#229 = DESIGN_CONTEXT ( 'detailed design', #142, 'design' ) ;
#230 = DIRECTION ( 'NONE',  ( 0.0000000000000000000, 0.0000000000000000000, 1.000000000000000000 ) ) ;
#231 = AXIS2_PLACEMENT_3D ( 'NONE', #81, #102, #176 ) ;
#232 = CIRCLE ( 'NONE', #260, 4.000000000000000000 ) ;
#233 = CYLINDRICAL_SURFACE ( 'NONE', #203, 4.000000000000000000 ) ;
#234 = EDGE_CURVE ( 'NONE', #139, #139, #232, .T. ) ;
#235 = EDGE_LOOP ( 'NONE', ( #126 ) ) ;
#236 = COORDINATED_UNIVERSAL_TIME_OFFSET ( 1, 0, .AHEAD. ) ;
#237 = COORDINATED_UNIVERSAL_TIME_OFFSET ( 1, 0, .AHEAD. ) ;
#238 = EDGE_CURVE ( 'NONE', #147, #147, #46, .T. ) ;
#239 = DATE_AND_TIME ( #172, #117 ) ;
#240 = LOCAL_TIME ( 9, 13, 9.000000000000000000, #236 ) ;
#241 = CARTESIAN_POINT ( 'NONE',  ( 2.601153597438134034E-13, -9.123618653647779582E-15, 74.49999999999998579 ) ) ;
#242 = FACE_OUTER_BOUND ( 'NONE', #140, .T. ) ;
#243 = CYLINDRICAL_SURFACE ( 'NONE', #79, 4.000000000000000000 ) ;
#244 = FACE_BOUND ( 'NONE', #180, .T. ) ;
#245 = FACE_OUTER_BOUND ( 'NONE', #202, .T. ) ;
#246 = ADVANCED_FACE ( 'NONE', ( #225, #44 ), #233, .T. ) ;
#247 = DIRECTION ( 'NONE',  ( 4.275831445896958607E-31, 1.000000000000000000, 1.224646799147353207E-16 ) ) ;
#248 = ORIENTED_EDGE ( 'NONE', *, *, #48, .T. ) ;
#249 = VERTEX_POINT ( 'NONE', #106 ) ;
#250 = EDGE_LOOP ( 'NONE', ( #223 ) ) ;
#251 = CARTESIAN_POINT ( 'NONE',  ( 3.000000000000000000, 0.0000000000000000000, -1.155864618901490450E-14 ) ) ;
#252 = CARTESIAN_POINT ( 'NONE',  ( 0.0000000000000000000, 0.0000000000000000000, 0.0000000000000000000 ) ) ;
#253 = CARTESIAN_POINT ( 'NONE',  ( 2.601153597438134034E-13, 3.999999999999989786, 74.49999999999998579 ) ) ;
#254 = APPROVAL_STATUS ( 'not_yet_approved' ) ;
#255 = CALENDAR_DATE ( 2021, 18, 11 ) ;
#256 = APPROVAL_DATE_TIME ( #215, #39 ) ;
#257 = ADVANCED_FACE ( 'NONE', ( #189, #68 ), #193, .T. ) ;
#258 = CALENDAR_DATE ( 2021, 18, 11 ) ;
#259 = AXIS2_PLACEMENT_3D ( 'NONE', #118, #1, #174 ) ;
#260 = AXIS2_PLACEMENT_3D ( 'NONE', #208, #211, #162 ) ;
#261 = CARTESIAN_POINT ( 'NONE',  ( 3.491481338843133355E-14, 0.0000000000000000000, 10.00000000000000000 ) ) ;
#262 = DIRECTION ( 'NONE',  ( 0.0000000000000000000, 1.000000000000000000, 0.0000000000000000000 ) ) ;
#263 = DIRECTION ( 'NONE',  ( -3.491481338843133355E-15, 1.224646799147353207E-16, -1.000000000000000000 ) ) ;
ENDSEC;
END-ISO-10303-21;
