ISO-10303-21;
HEADER;
FILE_DESCRIPTION (( 'STEP AP203' ),
    '1' );
FILE_NAME ('56634.step',
    '2021-11-18T08:13:09',
    ( '' ),
    ( '' ),
    'SwSTEP 2.0',
    'SolidWorks 2019',
    '' );
FILE_SCHEMA (( 'CONFIG_CONTROL_DESIGN' ));
ENDSEC;

DATA;
#1 = CYLINDRICAL_SURFACE ( 'NONE', #230, 3.750000000000000000 ) ;
#2 = DIRECTION ( 'NONE',  ( 4.275831445896958607E-31, 1.000000000000000000, 1.224646799147353207E-16 ) ) ;
#3 = FACE_OUTER_BOUND ( 'NONE', #39, .T. ) ;
#4 = DIRECTION ( 'NONE',  ( -3.491481338843133355E-15, 1.224646799147353207E-16, -1.000000000000000000 ) ) ;
#5 = ADVANCED_FACE ( 'NONE', ( #16 ), #223, .F. ) ;
#6 = PLANE ( 'NONE',  #263 ) ;
#7 = APPROVAL ( #52, 'UNSPECIFIED' ) ;
#8 = CARTESIAN_POINT ( 'NONE',  ( 1.021258291611616475E-13, 0.0000000000000000000, 29.25000000000000000 ) ) ;
#9 = CARTESIAN_POINT ( 'NONE',  ( 2.601153597438134034E-13, -9.123618653647779582E-15, 74.49999999999998579 ) ) ;
#10 = VERTEX_POINT ( 'NONE', #79 ) ;
#11 = EDGE_LOOP ( 'NONE', ( #218 ) ) ;
#12 = VERTEX_POINT ( 'NONE', #133 ) ;
#13 = EDGE_LOOP ( 'NONE', ( #55 ) ) ;
#14 = EDGE_CURVE ( 'NONE', #168, #168, #154, .T. ) ;
#15 = ORIENTED_EDGE ( 'NONE', *, *, #143, .F. ) ;
#16 = FACE_OUTER_BOUND ( 'NONE', #95, .T. ) ;
#17 = PERSON_AND_ORGANIZATION_ROLE ( 'creator' ) ;
#18 = DIRECTION ( 'NONE',  ( 3.491481338843133355E-15, -0.0000000000000000000, 1.000000000000000000 ) ) ;
#19 = APPLICATION_PROTOCOL_DEFINITION ( 'international standard', 'config_control_design', 1994, #105 ) ;
#20 = FACE_OUTER_BOUND ( 'NONE', #247, .T. ) ;
#21 = AXIS2_PLACEMENT_3D ( 'NONE', #45, #184, #2 ) ;
#22 = DATE_AND_TIME ( #46, #202 ) ;
#23 = CIRCLE ( 'NONE', #69, 3.500000000000005329 ) ;
#24 = CYLINDRICAL_SURFACE ( 'NONE', #21, 4.000000000000000000 ) ;
#25 = CALENDAR_DATE ( 2021, 18, 11 ) ;
#26 = DIRECTION ( 'NONE',  ( 3.491481338843133355E-15, -1.224646799147353207E-16, 1.000000000000000000 ) ) ;
#27 = DIRECTION ( 'NONE',  ( 3.491481338843133355E-15, -0.0000000000000000000, 1.000000000000000000 ) ) ;
#28 = DIRECTION ( 'NONE',  ( 1.000000000000000000, 0.0000000000000000000, -3.491481338843133355E-15 ) ) ;
#29 = CC_DESIGN_APPROVAL ( #85, ( #136 ) ) ;
#30 = DIRECTION ( 'NONE',  ( 0.0000000000000000000, 1.000000000000000000, 0.0000000000000000000 ) ) ;
#31 = FACE_OUTER_BOUND ( 'NONE', #11, .T. ) ;
#32 = ADVANCED_FACE ( 'NONE', ( #176 ), #157, .T. ) ;
#33 = FACE_OUTER_BOUND ( 'NONE', #151, .T. ) ;
#34 = ORIENTED_EDGE ( 'NONE', *, *, #143, .T. ) ;
#35 = CC_DESIGN_PERSON_AND_ORGANIZATION_ASSIGNMENT ( #126, #262, ( #175 ) ) ;
#36 = DIRECTION ( 'NONE',  ( 3.491481338843133355E-15, -0.0000000000000000000, 1.000000000000000000 ) ) ;
#37 =( NAMED_UNIT ( * ) SI_UNIT ( $, .STERADIAN. ) SOLID_ANGLE_UNIT ( ) );
#38 = CC_DESIGN_DATE_AND_TIME_ASSIGNMENT ( #258, #81, ( #136 ) ) ;
#39 = EDGE_LOOP ( 'NONE', ( #34 ) ) ;
#40 = EDGE_LOOP ( 'NONE', ( #198 ) ) ;
#41 = CARTESIAN_POINT ( 'NONE',  ( 2.601153597438134034E-13, 3.999999999999989786, 74.49999999999998579 ) ) ;
#42 = CARTESIAN_POINT ( 'NONE',  ( 2.601153597438134034E-13, -9.123618653647779582E-15, 74.49999999999998579 ) ) ;
#43 = APPROVAL_PERSON_ORGANIZATION ( #192, #7, #132 ) ;
#44 = PERSON_AND_ORGANIZATION ( #66, #122 ) ;
#45 = CARTESIAN_POINT ( 'NONE',  ( 0.0000000000000000000, 0.0000000000000000000, 0.0000000000000000000 ) ) ;
#46 = CALENDAR_DATE ( 2021, 18, 11 ) ;
#47 = DIRECTION ( 'NONE',  ( 0.0000000000000000000, 1.000000000000000000, 0.0000000000000000000 ) ) ;
#48 = DIRECTION ( 'NONE',  ( 0.0000000000000000000, 1.000000000000000000, 0.0000000000000000000 ) ) ;
#49 = EDGE_LOOP ( 'NONE', ( #53 ) ) ;
#50 = CARTESIAN_POINT ( 'NONE',  ( 2.618611004132350143E-13, -9.184850993605148733E-15, 75.00000000000000000 ) ) ;
#51 = ADVANCED_FACE ( 'NONE', ( #83, #123 ), #24, .T. ) ;
#52 = APPROVAL_STATUS ( 'not_yet_approved' ) ;
#53 = ORIENTED_EDGE ( 'NONE', *, *, #172, .T. ) ;
#54 = CARTESIAN_POINT ( 'NONE',  ( 2.618611004132350143E-13, 2.624579619658241508E-32, 75.00000000000000000 ) ) ;
#55 = ORIENTED_EDGE ( 'NONE', *, *, #172, .F. ) ;
#56 = CARTESIAN_POINT ( 'NONE',  ( 4.000000000000002665, 0.0000000000000000000, 0.4999999999999849565 ) ) ;
#57 =( NAMED_UNIT ( * ) PLANE_ANGLE_UNIT ( ) SI_UNIT ( $, .RADIAN. ) );
#58 = CARTESIAN_POINT ( 'NONE',  ( 3.750000000000097256, 0.0000000000000000000, 27.99999999999998579 ) ) ;
#59 = CARTESIAN_POINT ( 'NONE',  ( 9.776147748760773395E-14, 0.0000000000000000000, 28.00000000000000000 ) ) ;
#60 = LOCAL_TIME ( 9, 13, 9.000000000000000000, #166 ) ;
#61 = PERSON_AND_ORGANIZATION ( #66, #122 ) ;
#62 = DIRECTION ( 'NONE',  ( 3.491481338843133355E-15, -0.0000000000000000000, 1.000000000000000000 ) ) ;
#63 = PERSON_AND_ORGANIZATION ( #66, #122 ) ;
#64 = ADVANCED_FACE ( 'NONE', ( #3, #240 ), #1, .T. ) ;
#65 = CC_DESIGN_APPROVAL ( #213, ( #175 ) ) ;
#66 = PERSON ( 'UNSPECIFIED', 'UNSPECIFIED', 'UNSPECIFIED', ('UNSPECIFIED'), ('UNSPECIFIED'), ('UNSPECIFIED') ) ;
#67 = CC_DESIGN_PERSON_AND_ORGANIZATION_ASSIGNMENT ( #121, #140, ( #242 ) ) ;
#68 = DIRECTION ( 'NONE',  ( 3.491481338843133355E-15, -0.0000000000000000000, 1.000000000000000000 ) ) ;
#69 = AXIS2_PLACEMENT_3D ( 'NONE', #50, #227, #251 ) ;
#70 = AXIS2_PLACEMENT_3D ( 'NONE', #180, #190, #131 ) ;
#71 = CARTESIAN_POINT ( 'NONE',  ( 3.491481338843133355E-14, 0.0000000000000000000, 10.00000000000000000 ) ) ;
#72 = ORIENTED_EDGE ( 'NONE', *, *, #117, .F. ) ;
#73 = CARTESIAN_POINT ( 'NONE',  ( -5.299660313872851886E-30, 0.0000000000000000000, -1.517883041479706208E-15 ) ) ;
#74 = APPROVAL_DATE_TIME ( #108, #7 ) ;
#75 = ORIENTED_EDGE ( 'NONE', *, *, #141, .F. ) ;
#76 = AXIS2_PLACEMENT_3D ( 'NONE', #8, #68, #228 ) ;
#77 = APPROVAL_PERSON_ORGANIZATION ( #238, #213, #182 ) ;
#78 = CIRCLE ( 'NONE', #111, 3.750000000000000000 ) ;
#79 = CARTESIAN_POINT ( 'NONE',  ( 3.491481338843133355E-14, 3.999999999999999112, 10.00000000000000000 ) ) ;
#80 = EDGE_CURVE ( 'NONE', #233, #233, #188, .T. ) ;
#81 = DATE_TIME_ROLE ( 'creation_date' ) ;
#82 = DESIGN_CONTEXT ( 'detailed design', #105, 'design' ) ;
#83 = FACE_OUTER_BOUND ( 'NONE', #114, .T. ) ;
#84 = CONICAL_SURFACE ( 'NONE', #196, 3.999999999999999112, 0.7853981633974279619 ) ;
#85 = APPROVAL ( #222, 'UNSPECIFIED' ) ;
#86 = CARTESIAN_POINT ( 'NONE',  ( -1.282749433769087757E-30, 0.0000000000000000000, -3.673940397442059868E-16 ) ) ;
#87 = AXIS2_PLACEMENT_3D ( 'NONE', #179, #206, #205 ) ;
#88 = SECURITY_CLASSIFICATION_LEVEL ( 'unclassified' ) ;
#89 = ADVANCED_FACE ( 'NONE', ( #20 ), #102, .T. ) ;
#90 = DIRECTION ( 'NONE',  ( 1.000000000000000000, 0.0000000000000000000, -3.469446951953614189E-15 ) ) ;
#91 = APPLICATION_CONTEXT ( 'configuration controlled 3d designs of mechanical parts and assemblies' ) ;
#92 = VERTEX_POINT ( 'NONE', #257 ) ;
#93 = ORIENTED_EDGE ( 'NONE', *, *, #80, .T. ) ;
#94 = CYLINDRICAL_SURFACE ( 'NONE', #134, 4.000000000000000000 ) ;
#95 = EDGE_LOOP ( 'NONE', ( #15 ) ) ;
#96 = DIRECTION ( 'NONE',  ( 1.000000000000000000, 0.0000000000000000000, -3.491481338843133355E-15 ) ) ;
#97 = DIRECTION ( 'NONE',  ( -3.491481338843133355E-15, 1.224646799147353207E-16, -1.000000000000000000 ) ) ;
#98 = CALENDAR_DATE ( 2021, 18, 11 ) ;
#99 = EDGE_LOOP ( 'NONE', ( #75 ) ) ;
#100 = DIRECTION ( 'NONE',  ( 1.000000000000000000, 0.0000000000000000000, -3.700743415417188731E-15 ) ) ;
#101 = COORDINATED_UNIVERSAL_TIME_OFFSET ( 1, 0, .AHEAD. ) ;
#102 = PLANE ( 'NONE',  #70 ) ;
#103 = CC_DESIGN_DATE_AND_TIME_ASSIGNMENT ( #185, #155, ( #242 ) ) ;
#104 = PERSON_AND_ORGANIZATION ( #66, #122 ) ;
#105 = APPLICATION_CONTEXT ( 'configuration controlled 3d designs of mechanical parts and assemblies' ) ;
#106 = DIRECTION ( 'NONE',  ( 3.491481338843133355E-15, -0.0000000000000000000, 1.000000000000000000 ) ) ;
#107 = PRODUCT_RELATED_PRODUCT_CATEGORY ( 'detail', '', ( #144 ) ) ;
#108 = DATE_AND_TIME ( #163, #60 ) ;
#109 = CARTESIAN_POINT ( 'NONE',  ( 3.750000000000035083, 0.0000000000000000000, 9.999999999999985789 ) ) ;
#110 = CLOSED_SHELL ( 'NONE', ( #226, #177, #158, #64, #161, #5 ) ) ;
#111 = AXIS2_PLACEMENT_3D ( 'NONE', #71, #162, #129 ) ;
#112 = EDGE_LOOP ( 'NONE', ( #201 ) ) ;
#113 = CARTESIAN_POINT ( 'NONE',  ( 2.618611004132350143E-13, 3.499999999999996003, 75.00000000000000000 ) ) ;
#114 = EDGE_LOOP ( 'NONE', ( #210 ) ) ;
#115 = LOCAL_TIME ( 9, 13, 9.000000000000000000, #128 ) ;
#116 = APPROVAL_ROLE ( '' ) ;
#117 = EDGE_CURVE ( 'NONE', #10, #10, #156, .T. ) ;
#118 = COORDINATED_UNIVERSAL_TIME_OFFSET ( 1, 0, .AHEAD. ) ;
#119 = CALENDAR_DATE ( 2021, 18, 11 ) ;
#120 = DIRECTION ( 'NONE',  ( 1.000000000000000000, 0.0000000000000000000, -3.491481338843133355E-15 ) ) ;
#121 = PERSON_AND_ORGANIZATION ( #66, #122 ) ;
#122 = ORGANIZATION ( 'UNSPECIFIED', 'UNSPECIFIED', '' ) ;
#123 = FACE_OUTER_BOUND ( 'NONE', #173, .T. ) ;
#124 = CIRCLE ( 'NONE', #235, 4.000000000000000888 ) ;
#125 = PERSON_AND_ORGANIZATION_ROLE ( 'design_supplier' ) ;
#126 = PERSON_AND_ORGANIZATION ( #66, #122 ) ;
#127 = CARTESIAN_POINT ( 'NONE',  ( 1.745740669421562931E-15, 0.0000000000000000000, 0.4999999999999989453 ) ) ;
#128 = COORDINATED_UNIVERSAL_TIME_OFFSET ( 1, 0, .AHEAD. ) ;
#129 = DIRECTION ( 'NONE',  ( 1.000000000000000000, 0.0000000000000000000, -3.700743415417188731E-15 ) ) ;
#130 = ORIENTED_EDGE ( 'NONE', *, *, #167, .T. ) ;
#131 = DIRECTION ( 'NONE',  ( -4.275831445896958607E-31, -1.000000000000000000, -1.224646799147353207E-16 ) ) ;
#132 = APPROVAL_ROLE ( '' ) ;
#133 = CARTESIAN_POINT ( 'NONE',  ( 4.000000000000098588, 0.0000000000000000000, 28.24999999999998579 ) ) ;
#134 = AXIS2_PLACEMENT_3D ( 'NONE', #153, #216, #135 ) ;
#135 = DIRECTION ( 'NONE',  ( 4.275831445896958607E-31, 1.000000000000000000, 1.224646799147353207E-16 ) ) ;
#136 = PRODUCT_DEFINITION ( 'UNKNOWN', '', #175, #82 ) ;
#137 = APPLICATION_PROTOCOL_DEFINITION ( 'international standard', 'config_control_design', 1994, #91 ) ;
#138 = CC_DESIGN_PERSON_AND_ORGANIZATION_ASSIGNMENT ( #104, #139, ( #144 ) ) ;
#139 = PERSON_AND_ORGANIZATION_ROLE ( 'design_owner' ) ;
#140 = PERSON_AND_ORGANIZATION_ROLE ( 'classification_officer' ) ;
#141 = EDGE_CURVE ( 'NONE', #171, #171, #124, .T. ) ;
#142 = APPROVAL_DATE_TIME ( #224, #213 ) ;
#143 = EDGE_CURVE ( 'NONE', #152, #152, #78, .T. ) ;
#144 = PRODUCT ( '56634', '56634', '', ( #178 ) ) ;
#145 = FACE_OUTER_BOUND ( 'NONE', #40, .T. ) ;
#146 = AXIS2_PLACEMENT_3D ( 'NONE', #59, #18, #100 ) ;
#147 = CIRCLE ( 'NONE', #261, 3.500000000000000000 ) ;
#148 = DIRECTION ( 'NONE',  ( 1.000000000000000000, 0.0000000000000000000, -3.496552006265751011E-15 ) ) ;
#149 = MANIFOLD_SOLID_BREP ( 'Corps-Déplacer/Copier1[1]', #110 ) ;
#150 = AXIS2_PLACEMENT_3D ( 'NONE', #186, #259, #241 ) ;
#151 = EDGE_LOOP ( 'NONE', ( #130 ) ) ;
#152 = VERTEX_POINT ( 'NONE', #109 ) ;
#153 = CARTESIAN_POINT ( 'NONE',  ( 0.0000000000000000000, 0.0000000000000000000, 0.0000000000000000000 ) ) ;
#154 = CIRCLE ( 'NONE', #260, 3.999999999999999112 ) ;
#155 = DATE_TIME_ROLE ( 'classification_date' ) ;
#156 = CIRCLE ( 'NONE', #197, 4.000000000000000000 ) ;
#157 = PLANE ( 'NONE',  #150 ) ;
#158 = ADVANCED_FACE ( 'NONE', ( #249 ), #6, .F. ) ;
#159 = LOCAL_TIME ( 9, 13, 9.000000000000000000, #118 ) ;
#160 = UNCERTAINTY_MEASURE_WITH_UNIT (LENGTH_MEASURE( 1.000000000000000082E-05 ), #200, 'distance_accuracy_value', 'NONE');
#161 = ADVANCED_FACE ( 'NONE', ( #31, #191 ), #187, .T. ) ;
#162 = DIRECTION ( 'NONE',  ( 3.491481338843133355E-15, -0.0000000000000000000, 1.000000000000000000 ) ) ;
#163 = CALENDAR_DATE ( 2021, 18, 11 ) ;
#164 = ADVANCED_BREP_SHAPE_REPRESENTATION ( '56634', ( #149, #237, #87 ), #169 ) ;
#165 = DIRECTION ( 'NONE',  ( 4.275831445896958607E-31, 1.000000000000000000, 1.224646799147353207E-16 ) ) ;
#166 = COORDINATED_UNIVERSAL_TIME_OFFSET ( 1, 0, .AHEAD. ) ;
#167 = EDGE_CURVE ( 'NONE', #92, #92, #147, .T. ) ;
#168 = VERTEX_POINT ( 'NONE', #41 ) ;
#169 =( GEOMETRIC_REPRESENTATION_CONTEXT ( 3 ) GLOBAL_UNCERTAINTY_ASSIGNED_CONTEXT ( ( #160 ) ) GLOBAL_UNIT_ASSIGNED_CONTEXT ( ( #200, #57, #37 ) ) REPRESENTATION_CONTEXT ( 'NONE', 'WORKASPACE' ) );
#170 = ORIENTED_EDGE ( 'NONE', *, *, #183, .T. ) ;
#171 = VERTEX_POINT ( 'NONE', #56 ) ;
#172 = EDGE_CURVE ( 'NONE', #195, #195, #23, .T. ) ;
#173 = EDGE_LOOP ( 'NONE', ( #194 ) ) ;
#174 = FACE_OUTER_BOUND ( 'NONE', #99, .T. ) ;
#175 = PRODUCT_DEFINITION_FORMATION_WITH_SPECIFIED_SOURCE ( 'ANY', '', #144, .NOT_KNOWN. ) ;
#176 = FACE_OUTER_BOUND ( 'NONE', #236, .T. ) ;
#177 = ADVANCED_FACE ( 'NONE', ( #212, #193 ), #84, .T. ) ;
#178 = MECHANICAL_CONTEXT ( 'NONE', #91, 'mechanical' ) ;
#179 = CARTESIAN_POINT ( 'NONE',  ( 0.0000000000000000000, 0.0000000000000000000, 0.0000000000000000000 ) ) ;
#180 = CARTESIAN_POINT ( 'NONE',  ( 3.491481338843133355E-14, 2.999519565323713574E-32, 10.00000000000000000 ) ) ;
#181 = COORDINATED_UNIVERSAL_TIME_OFFSET ( 1, 0, .AHEAD. ) ;
#182 = APPROVAL_ROLE ( '' ) ;
#183 = EDGE_CURVE ( 'NONE', #12, #12, #207, .T. ) ;
#184 = DIRECTION ( 'NONE',  ( -3.491481338843133355E-15, 1.224646799147353207E-16, -1.000000000000000000 ) ) ;
#185 = DATE_AND_TIME ( #25, #115 ) ;
#186 = CARTESIAN_POINT ( 'NONE',  ( -8.551662891793915461E-31, 2.999519565323715216E-32, -2.449293598294706414E-16 ) ) ;
#187 = CONICAL_SURFACE ( 'NONE', #76, 4.999999999999999112, 0.7853981633974490562 ) ;
#188 = CIRCLE ( 'NONE', #146, 3.750000000000000000 ) ;
#189 = DIRECTION ( 'NONE',  ( 3.491481338843133355E-15, -0.0000000000000000000, 1.000000000000000000 ) ) ;
#190 = DIRECTION ( 'NONE',  ( 3.491481338843133355E-15, -1.224646799147353207E-16, 1.000000000000000000 ) ) ;
#191 = FACE_BOUND ( 'NONE', #203, .T. ) ;
#192 = PERSON_AND_ORGANIZATION ( #66, #122 ) ;
#193 = FACE_OUTER_BOUND ( 'NONE', #232, .T. ) ;
#194 = ORIENTED_EDGE ( 'NONE', *, *, #117, .T. ) ;
#195 = VERTEX_POINT ( 'NONE', #113 ) ;
#196 = AXIS2_PLACEMENT_3D ( 'NONE', #9, #214, #48 ) ;
#197 = AXIS2_PLACEMENT_3D ( 'NONE', #211, #4, #30 ) ;
#198 = ORIENTED_EDGE ( 'NONE', *, *, #14, .T. ) ;
#199 = CC_DESIGN_PERSON_AND_ORGANIZATION_ASSIGNMENT ( #44, #17, ( #136 ) ) ;
#200 =( LENGTH_UNIT ( ) NAMED_UNIT ( * ) SI_UNIT ( .MILLI., .METRE. ) );
#201 = ORIENTED_EDGE ( 'NONE', *, *, #80, .F. ) ;
#202 = LOCAL_TIME ( 9, 13, 9.000000000000000000, #181 ) ;
#203 = EDGE_LOOP ( 'NONE', ( #93 ) ) ;
#204 = DIRECTION ( 'NONE',  ( -4.275831445896958607E-31, -1.000000000000000000, -1.224646799147353207E-16 ) ) ;
#205 = DIRECTION ( 'NONE',  ( 1.000000000000000000, 0.0000000000000000000, 0.0000000000000000000 ) ) ;
#206 = DIRECTION ( 'NONE',  ( 0.0000000000000000000, 0.0000000000000000000, 1.000000000000000000 ) ) ;
#207 = CIRCLE ( 'NONE', #225, 4.000000000000000000 ) ;
#208 = AXIS2_PLACEMENT_3D ( 'NONE', #219, #26, #204 ) ;
#209 = CC_DESIGN_APPROVAL ( #7, ( #242 ) ) ;
#210 = ORIENTED_EDGE ( 'NONE', *, *, #141, .T. ) ;
#211 = CARTESIAN_POINT ( 'NONE',  ( 3.491481338843133355E-14, -1.224646799147353256E-15, 10.00000000000000000 ) ) ;
#212 = FACE_BOUND ( 'NONE', #49, .T. ) ;
#213 = APPROVAL ( #221, 'UNSPECIFIED' ) ;
#214 = DIRECTION ( 'NONE',  ( -3.491481338843133355E-15, 1.224646799147353207E-16, -1.000000000000000000 ) ) ;
#215 = ORIENTED_EDGE ( 'NONE', *, *, #14, .F. ) ;
#216 = DIRECTION ( 'NONE',  ( -3.491481338843133355E-15, 1.224646799147353207E-16, -1.000000000000000000 ) ) ;
#217 = CARTESIAN_POINT ( 'NONE',  ( 1.745740669421562931E-15, 0.0000000000000000000, 0.4999999999999989453 ) ) ;
#218 = ORIENTED_EDGE ( 'NONE', *, *, #183, .F. ) ;
#219 = CARTESIAN_POINT ( 'NONE',  ( 3.491481338843133355E-14, 2.999519565323713574E-32, 10.00000000000000000 ) ) ;
#220 = APPROVAL_DATE_TIME ( #22, #85 ) ;
#221 = APPROVAL_STATUS ( 'not_yet_approved' ) ;
#222 = APPROVAL_STATUS ( 'not_yet_approved' ) ;
#223 = PLANE ( 'NONE',  #208 ) ;
#224 = DATE_AND_TIME ( #119, #229 ) ;
#225 = AXIS2_PLACEMENT_3D ( 'NONE', #243, #189, #90 ) ;
#226 = ADVANCED_FACE ( 'NONE', ( #145, #255 ), #94, .T. ) ;
#227 = DIRECTION ( 'NONE',  ( -3.491481338843133355E-15, 1.224646799147353207E-16, -1.000000000000000000 ) ) ;
#228 = DIRECTION ( 'NONE',  ( 1.000000000000000000, 0.0000000000000000000, -3.469446951953614978E-15 ) ) ;
#229 = LOCAL_TIME ( 9, 13, 9.000000000000000000, #101 ) ;
#230 = AXIS2_PLACEMENT_3D ( 'NONE', #86, #62, #120 ) ;
#231 = DIRECTION ( 'NONE',  ( -3.491481338843133355E-15, 1.224646799147353207E-16, -1.000000000000000000 ) ) ;
#232 = EDGE_LOOP ( 'NONE', ( #215 ) ) ;
#233 = VERTEX_POINT ( 'NONE', #58 ) ;
#234 = TOROIDAL_SURFACE ( 'NONE', #246, 3.500000000000000000, 0.5000000000000004441 ) ;
#235 = AXIS2_PLACEMENT_3D ( 'NONE', #127, #27, #148 ) ;
#236 = EDGE_LOOP ( 'NONE', ( #253 ) ) ;
#237 = MANIFOLD_SOLID_BREP ( 'Corps-Déplacer/Copier1[2]', #245 ) ;
#238 = PERSON_AND_ORGANIZATION ( #66, #122 ) ;
#239 = CC_DESIGN_SECURITY_CLASSIFICATION ( #242, ( #175 ) ) ;
#240 = FACE_OUTER_BOUND ( 'NONE', #112, .T. ) ;
#241 = DIRECTION ( 'NONE',  ( 4.275831445896958607E-31, 1.000000000000000000, 1.224646799147353207E-16 ) ) ;
#242 = SECURITY_CLASSIFICATION ( '', '', #88 ) ;
#243 = CARTESIAN_POINT ( 'NONE',  ( 9.863434782231852675E-14, 0.0000000000000000000, 28.25000000000000000 ) ) ;
#244 = PRODUCT_DEFINITION_SHAPE ( 'NONE', 'NONE',  #136 ) ;
#245 = CLOSED_SHELL ( 'NONE', ( #51, #89, #248, #32 ) ) ;
#246 = AXIS2_PLACEMENT_3D ( 'NONE', #217, #36, #96 ) ;
#247 = EDGE_LOOP ( 'NONE', ( #72 ) ) ;
#248 = ADVANCED_FACE ( 'NONE', ( #33, #174 ), #234, .T. ) ;
#249 = FACE_OUTER_BOUND ( 'NONE', #13, .T. ) ;
#250 = EDGE_LOOP ( 'NONE', ( #170 ) ) ;
#251 = DIRECTION ( 'NONE',  ( 0.0000000000000000000, 1.000000000000000000, 0.0000000000000000000 ) ) ;
#252 = SHAPE_DEFINITION_REPRESENTATION ( #244, #164 ) ;
#253 = ORIENTED_EDGE ( 'NONE', *, *, #167, .F. ) ;
#254 = CC_DESIGN_PERSON_AND_ORGANIZATION_ASSIGNMENT ( #63, #125, ( #175 ) ) ;
#255 = FACE_OUTER_BOUND ( 'NONE', #250, .T. ) ;
#256 = APPROVAL_PERSON_ORGANIZATION ( #61, #85, #116 ) ;
#257 = CARTESIAN_POINT ( 'NONE',  ( 3.500000000000000000, 0.0000000000000000000, -1.373806772743067295E-14 ) ) ;
#258 = DATE_AND_TIME ( #98, #159 ) ;
#259 = DIRECTION ( 'NONE',  ( -3.491481338843133355E-15, 1.224646799147353207E-16, -1.000000000000000000 ) ) ;
#260 = AXIS2_PLACEMENT_3D ( 'NONE', #42, #97, #47 ) ;
#261 = AXIS2_PLACEMENT_3D ( 'NONE', #73, #106, #28 ) ;
#262 = PERSON_AND_ORGANIZATION_ROLE ( 'creator' ) ;
#263 = AXIS2_PLACEMENT_3D ( 'NONE', #54, #231, #165 ) ;
ENDSEC;
END-ISO-10303-21;
