ISO-10303-21;
HEADER;
FILE_DESCRIPTION (( 'STEP AP203' ),
    '1' );
FILE_NAME ('56628.step',
    '2021-11-18T08:13:07',
    ( '' ),
    ( '' ),
    'SwSTEP 2.0',
    'SolidWorks 2019',
    '' );
FILE_SCHEMA (( 'CONFIG_CONTROL_DESIGN' ));
ENDSEC;

DATA;
#1 = DIRECTION ( 'NONE',  ( -3.491481338843133355E-15, 1.224646799147353207E-16, -1.000000000000000000 ) ) ;
#2 = DIRECTION ( 'NONE',  ( -3.491481338843133355E-15, 1.224646799147353207E-16, -1.000000000000000000 ) ) ;
#3 = FACE_OUTER_BOUND ( 'NONE', #63, .T. ) ;
#4 = PERSON_AND_ORGANIZATION_ROLE ( 'creator' ) ;
#5 = DATE_AND_TIME ( #112, #50 ) ;
#6 = DIRECTION ( 'NONE',  ( 0.0000000000000000000, 0.0000000000000000000, 1.000000000000000000 ) ) ;
#7 = AXIS2_PLACEMENT_3D ( 'NONE', #186, #84, #26 ) ;
#8 = PRODUCT_RELATED_PRODUCT_CATEGORY ( 'detail', '', ( #210 ) ) ;
#9 = PRODUCT_DEFINITION ( 'UNKNOWN', '', #159, #108 ) ;
#10 = PERSON_AND_ORGANIZATION ( #17, #68 ) ;
#11 = COORDINATED_UNIVERSAL_TIME_OFFSET ( 1, 0, .AHEAD. ) ;
#12 = DIRECTION ( 'NONE',  ( -3.491481338843133355E-15, 1.224646799147353207E-16, -1.000000000000000000 ) ) ;
#13 = AXIS2_PLACEMENT_3D ( 'NONE', #206, #219, #28 ) ;
#14 = ORIENTED_EDGE ( 'NONE', *, *, #115, .T. ) ;
#15 = PLANE ( 'NONE',  #245 ) ;
#16 = EDGE_LOOP ( 'NONE', ( #43 ) ) ;
#17 = PERSON ( 'UNSPECIFIED', 'UNSPECIFIED', 'UNSPECIFIED', ('UNSPECIFIED'), ('UNSPECIFIED'), ('UNSPECIFIED') ) ;
#18 = EDGE_CURVE ( 'NONE', #23, #23, #82, .T. ) ;
#19 = CYLINDRICAL_SURFACE ( 'NONE', #83, 2.999999999999998224 ) ;
#20 = EDGE_LOOP ( 'NONE', ( #96 ) ) ;
#21 = ORIENTED_EDGE ( 'NONE', *, *, #184, .F. ) ;
#22 = DIRECTION ( 'NONE',  ( 3.491481338843133355E-15, -0.0000000000000000000, 1.000000000000000000 ) ) ;
#23 = VERTEX_POINT ( 'NONE', #125 ) ;
#24 = VERTEX_POINT ( 'NONE', #107 ) ;
#25 = AXIS2_PLACEMENT_3D ( 'NONE', #231, #78, #39 ) ;
#26 = DIRECTION ( 'NONE',  ( 1.000000000000000000, 0.0000000000000000000, -3.491481338843133355E-15 ) ) ;
#27 = PRODUCT_DEFINITION_SHAPE ( 'NONE', 'NONE',  #9 ) ;
#28 = DIRECTION ( 'NONE',  ( 1.000000000000000000, 0.0000000000000000000, -3.491481338843133355E-15 ) ) ;
#29 = APPLICATION_PROTOCOL_DEFINITION ( 'international standard', 'config_control_design', 1994, #256 ) ;
#30 = TOROIDAL_SURFACE ( 'NONE', #174, 2.000000000000000000, 1.000000000000000000 ) ;
#31 = APPROVAL_ROLE ( '' ) ;
#32 = CALENDAR_DATE ( 2021, 18, 11 ) ;
#33 = COORDINATED_UNIVERSAL_TIME_OFFSET ( 1, 0, .AHEAD. ) ;
#34 = UNCERTAINTY_MEASURE_WITH_UNIT (LENGTH_MEASURE( 1.000000000000000082E-05 ), #52, 'distance_accuracy_value', 'NONE');
#35 = AXIS2_PLACEMENT_3D ( 'NONE', #48, #1, #86 ) ;
#36 = APPROVAL_STATUS ( 'not_yet_approved' ) ;
#37 = PLANE ( 'NONE',  #229 ) ;
#38 = EDGE_LOOP ( 'NONE', ( #21 ) ) ;
#39 = DIRECTION ( 'NONE',  ( 0.0000000000000000000, 1.000000000000000000, 0.0000000000000000000 ) ) ;
#40 = DIRECTION ( 'NONE',  ( 3.491481338843133355E-15, -0.0000000000000000000, 1.000000000000000000 ) ) ;
#41 = DIRECTION ( 'NONE',  ( -3.491481338843133355E-15, 1.224646799147353207E-16, -1.000000000000000000 ) ) ;
#42 = CARTESIAN_POINT ( 'NONE',  ( 3.491481338843129017E-15, 0.0000000000000000000, 0.9999999999999986677 ) ) ;
#43 = ORIENTED_EDGE ( 'NONE', *, *, #70, .T. ) ;
#44 = VERTEX_POINT ( 'NONE', #262 ) ;
#45 = APPROVAL_DATE_TIME ( #220, #201 ) ;
#46 = DIRECTION ( 'NONE',  ( 4.275831445896958607E-31, 1.000000000000000000, 1.224646799147353207E-16 ) ) ;
#47 = AXIS2_PLACEMENT_3D ( 'NONE', #233, #257, #139 ) ;
#48 = CARTESIAN_POINT ( 'NONE',  ( 2.286920276942253168E-13, -8.021436534415166404E-15, 65.50000000000001421 ) ) ;
#49 = COORDINATED_UNIVERSAL_TIME_OFFSET ( 1, 0, .AHEAD. ) ;
#50 = LOCAL_TIME ( 9, 13, 7.000000000000000000, #33 ) ;
#51 = PERSON_AND_ORGANIZATION ( #17, #68 ) ;
#52 =( LENGTH_UNIT ( ) NAMED_UNIT ( * ) SI_UNIT ( .MILLI., .METRE. ) );
#53 = VERTEX_POINT ( 'NONE', #191 ) ;
#54 = DIRECTION ( 'NONE',  ( -3.491481338843133355E-15, 1.224646799147353207E-16, -1.000000000000000000 ) ) ;
#55 = AXIS2_PLACEMENT_3D ( 'NONE', #158, #236, #205 ) ;
#56 = ADVANCED_FACE ( 'NONE', ( #138, #59 ), #101, .T. ) ;
#57 = ADVANCED_FACE ( 'NONE', ( #197 ), #97, .T. ) ;
#58 = DIRECTION ( 'NONE',  ( 4.275831445896958607E-31, 1.000000000000000000, 1.224646799147353454E-16 ) ) ;
#59 = FACE_OUTER_BOUND ( 'NONE', #61, .T. ) ;
#60 = FACE_OUTER_BOUND ( 'NONE', #20, .T. ) ;
#61 = EDGE_LOOP ( 'NONE', ( #14 ) ) ;
#62 = CIRCLE ( 'NONE', #85, 2.500000000000017319 ) ;
#63 = EDGE_LOOP ( 'NONE', ( #173 ) ) ;
#64 = DIRECTION ( 'NONE',  ( -4.275831445896958607E-31, -1.000000000000000000, -1.224646799147353207E-16 ) ) ;
#65 = AXIS2_PLACEMENT_3D ( 'NONE', #238, #243, #221 ) ;
#66 = CARTESIAN_POINT ( 'NONE',  ( 2.304377683636468267E-13, 1.874699728327322557E-32, 66.00000000000000000 ) ) ;
#67 = CARTESIAN_POINT ( 'NONE',  ( 2.750000000000031086, 0.0000000000000000000, 8.999999999999987566 ) ) ;
#68 = ORGANIZATION ( 'UNSPECIFIED', 'UNSPECIFIED', '' ) ;
#69 = PERSON_AND_ORGANIZATION ( #17, #68 ) ;
#70 = EDGE_CURVE ( 'NONE', #44, #44, #62, .T. ) ;
#71 = FACE_OUTER_BOUND ( 'NONE', #235, .T. ) ;
#72 = PERSON_AND_ORGANIZATION ( #17, #68 ) ;
#73 = EDGE_LOOP ( 'NONE', ( #102 ) ) ;
#74 = AXIS2_PLACEMENT_3D ( 'NONE', #66, #2, #46 ) ;
#75 = ORIENTED_EDGE ( 'NONE', *, *, #70, .F. ) ;
#76 = DIRECTION ( 'NONE',  ( 0.0000000000000000000, 1.000000000000000000, 0.0000000000000000000 ) ) ;
#77 = ORIENTED_EDGE ( 'NONE', *, *, #144, .T. ) ;
#78 = DIRECTION ( 'NONE',  ( -3.491481338843133355E-15, 1.224646799147353207E-16, -1.000000000000000000 ) ) ;
#79 = ORIENTED_EDGE ( 'NONE', *, *, #190, .T. ) ;
#80 = ADVANCED_FACE ( 'NONE', ( #216, #157 ), #19, .T. ) ;
#81 = CC_DESIGN_PERSON_AND_ORGANIZATION_ASSIGNMENT ( #51, #172, ( #159 ) ) ;
#82 = CIRCLE ( 'NONE', #47, 2.749999999999999112 ) ;
#83 = AXIS2_PLACEMENT_3D ( 'NONE', #136, #41, #58 ) ;
#84 = DIRECTION ( 'NONE',  ( 3.491481338843133355E-15, -0.0000000000000000000, 1.000000000000000000 ) ) ;
#85 = AXIS2_PLACEMENT_3D ( 'NONE', #202, #175, #76 ) ;
#86 = DIRECTION ( 'NONE',  ( 0.0000000000000000000, 1.000000000000000000, 0.0000000000000000000 ) ) ;
#87 = ADVANCED_FACE ( 'NONE', ( #71 ), #37, .F. ) ;
#88 = SECURITY_CLASSIFICATION_LEVEL ( 'unclassified' ) ;
#89 = APPROVAL_STATUS ( 'not_yet_approved' ) ;
#90 = CONICAL_SURFACE ( 'NONE', #187, 3.999999999999996447, 0.7853981633974482790 ) ;
#91 = APPROVAL_STATUS ( 'not_yet_approved' ) ;
#92 = CC_DESIGN_PERSON_AND_ORGANIZATION_ASSIGNMENT ( #170, #152, ( #210 ) ) ;
#93 = DATE_TIME_ROLE ( 'creation_date' ) ;
#94 = DIRECTION ( 'NONE',  ( 1.000000000000000000, 0.0000000000000000000, -3.784851220313033947E-15 ) ) ;
#95 = LOCAL_TIME ( 9, 13, 7.000000000000000000, #49 ) ;
#96 = ORIENTED_EDGE ( 'NONE', *, *, #184, .T. ) ;
#97 = PLANE ( 'NONE',  #222 ) ;
#98 = ORIENTED_EDGE ( 'NONE', *, *, #165, .T. ) ;
#99 = FACE_OUTER_BOUND ( 'NONE', #38, .T. ) ;
#100 = ORIENTED_EDGE ( 'NONE', *, *, #150, .F. ) ;
#101 = CYLINDRICAL_SURFACE ( 'NONE', #142, 3.000000000000000000 ) ;
#102 = ORIENTED_EDGE ( 'NONE', *, *, #115, .F. ) ;
#103 = FACE_OUTER_BOUND ( 'NONE', #258, .T. ) ;
#104 = FACE_OUTER_BOUND ( 'NONE', #232, .T. ) ;
#105 = CYLINDRICAL_SURFACE ( 'NONE', #7, 2.749999999999999556 ) ;
#106 = SECURITY_CLASSIFICATION ( '', '', #88 ) ;
#107 = CARTESIAN_POINT ( 'NONE',  ( 3.000000000000083045, 0.0000000000000000000, 24.24999999999998934 ) ) ;
#108 = DESIGN_CONTEXT ( 'detailed design', #256, 'design' ) ;
#109 = LOCAL_TIME ( 9, 13, 7.000000000000000000, #227 ) ;
#110 = CARTESIAN_POINT ( 'NONE',  ( 3.000000000000003553, 0.0000000000000000000, 0.9999999999999883427 ) ) ;
#111 = DATE_AND_TIME ( #32, #95 ) ;
#112 = CALENDAR_DATE ( 2021, 18, 11 ) ;
#113 = ADVANCED_FACE ( 'NONE', ( #214, #250 ), #90, .T. ) ;
#114 = DIRECTION ( 'NONE',  ( 4.275831445896959482E-31, 1.000000000000000000, 1.224646799147353207E-16 ) ) ;
#115 = EDGE_CURVE ( 'NONE', #127, #127, #162, .T. ) ;
#116 = CARTESIAN_POINT ( 'NONE',  ( 3.142333204958819389E-14, 2.249639673992785043E-32, 8.999999999999998224 ) ) ;
#117 =( GEOMETRIC_REPRESENTATION_CONTEXT ( 3 ) GLOBAL_UNCERTAINTY_ASSIGNED_CONTEXT ( ( #34 ) ) GLOBAL_UNIT_ASSIGNED_CONTEXT ( ( #52, #148, #193 ) ) REPRESENTATION_CONTEXT ( 'NONE', 'WORKASPACE' ) );
#118 = EDGE_LOOP ( 'NONE', ( #140 ) ) ;
#119 = CC_DESIGN_PERSON_AND_ORGANIZATION_ASSIGNMENT ( #10, #130, ( #159 ) ) ;
#120 = CARTESIAN_POINT ( 'NONE',  ( 0.0000000000000000000, 0.0000000000000000000, 0.0000000000000000000 ) ) ;
#121 = ADVANCED_FACE ( 'NONE', ( #99 ), #15, .T. ) ;
#122 = CARTESIAN_POINT ( 'NONE',  ( 3.142333204958819389E-14, 0.0000000000000000000, 8.999999999999998224 ) ) ;
#123 = EDGE_LOOP ( 'NONE', ( #79 ) ) ;
#124 = CIRCLE ( 'NONE', #154, 2.999999999999996447 ) ;
#125 = CARTESIAN_POINT ( 'NONE',  ( 2.750000000000082601, 0.0000000000000000000, 23.99999999999998934 ) ) ;
#126 = APPROVAL_PERSON_ORGANIZATION ( #188, #249, #194 ) ;
#127 = VERTEX_POINT ( 'NONE', #163 ) ;
#128 = DIRECTION ( 'NONE',  ( 1.000000000000000000, 0.0000000000000000000, 0.0000000000000000000 ) ) ;
#129 = LOCAL_TIME ( 9, 13, 7.000000000000000000, #11 ) ;
#130 = PERSON_AND_ORGANIZATION_ROLE ( 'creator' ) ;
#131 = CARTESIAN_POINT ( 'NONE',  ( 0.0000000000000000000, 0.0000000000000000000, 0.0000000000000000000 ) ) ;
#132 = DIRECTION ( 'NONE',  ( 1.000000000000000000, 0.0000000000000000000, -3.491481338843133355E-15 ) ) ;
#133 = PERSON_AND_ORGANIZATION ( #17, #68 ) ;
#134 = CIRCLE ( 'NONE', #263, 2.750000000000000000 ) ;
#135 = DIRECTION ( 'NONE',  ( 1.000000000000000000, 0.0000000000000000000, -3.469446951953617344E-15 ) ) ;
#136 = CARTESIAN_POINT ( 'NONE',  ( 0.0000000000000000000, 0.0000000000000000000, 0.0000000000000000000 ) ) ;
#137 = CC_DESIGN_APPROVAL ( #201, ( #106 ) ) ;
#138 = FACE_OUTER_BOUND ( 'NONE', #123, .T. ) ;
#139 = DIRECTION ( 'NONE',  ( 1.000000000000000000, 0.0000000000000000000, -3.784851220313034736E-15 ) ) ;
#140 = ORIENTED_EDGE ( 'NONE', *, *, #190, .F. ) ;
#141 = CC_DESIGN_APPROVAL ( #164, ( #159 ) ) ;
#142 = AXIS2_PLACEMENT_3D ( 'NONE', #120, #156, #114 ) ;
#143 = APPROVAL_PERSON_ORGANIZATION ( #133, #164, #31 ) ;
#144 = EDGE_CURVE ( 'NONE', #240, #240, #134, .T. ) ;
#145 = VERTEX_POINT ( 'NONE', #110 ) ;
#146 = APPROVAL_DATE_TIME ( #149, #249 ) ;
#147 = LOCAL_TIME ( 9, 13, 7.000000000000000000, #246 ) ;
#148 =( NAMED_UNIT ( * ) PLANE_ANGLE_UNIT ( ) SI_UNIT ( $, .RADIAN. ) );
#149 = DATE_AND_TIME ( #225, #147 ) ;
#150 = EDGE_CURVE ( 'NONE', #24, #24, #166, .T. ) ;
#151 = CALENDAR_DATE ( 2021, 18, 11 ) ;
#152 = PERSON_AND_ORGANIZATION_ROLE ( 'design_owner' ) ;
#153 = EDGE_LOOP ( 'NONE', ( #253 ) ) ;
#154 = AXIS2_PLACEMENT_3D ( 'NONE', #218, #54, #155 ) ;
#155 = DIRECTION ( 'NONE',  ( 0.0000000000000000000, 1.000000000000000000, 0.0000000000000000000 ) ) ;
#156 = DIRECTION ( 'NONE',  ( -3.491481338843133355E-15, 1.224646799147353207E-16, -1.000000000000000000 ) ) ;
#157 = FACE_OUTER_BOUND ( 'NONE', #251, .T. ) ;
#158 = CARTESIAN_POINT ( 'NONE',  ( 8.466842246694599333E-14, 0.0000000000000000000, 24.25000000000000000 ) ) ;
#159 = PRODUCT_DEFINITION_FORMATION_WITH_SPECIFIED_SOURCE ( 'ANY', '', #210, .NOT_KNOWN. ) ;
#160 = CARTESIAN_POINT ( 'NONE',  ( 3.142333204958819389E-14, 2.249639673992785043E-32, 8.999999999999998224 ) ) ;
#161 = CLOSED_SHELL ( 'NONE', ( #80, #207, #244, #182, #113, #87 ) ) ;
#162 = CIRCLE ( 'NONE', #25, 3.000000000000000000 ) ;
#163 = CARTESIAN_POINT ( 'NONE',  ( 3.142333204958819389E-14, 2.999999999999998668, 8.999999999999998224 ) ) ;
#164 = APPROVAL ( #36, 'UNSPECIFIED' ) ;
#165 = EDGE_CURVE ( 'NONE', #183, #183, #124, .T. ) ;
#166 = CIRCLE ( 'NONE', #55, 2.999999999999998224 ) ;
#167 = DATE_TIME_ROLE ( 'classification_date' ) ;
#168 = APPROVAL_ROLE ( '' ) ;
#169 = CIRCLE ( 'NONE', #13, 2.000000000000000000 ) ;
#170 = PERSON_AND_ORGANIZATION ( #17, #68 ) ;
#171 = PERSON_AND_ORGANIZATION ( #17, #68 ) ;
#172 = PERSON_AND_ORGANIZATION_ROLE ( 'design_supplier' ) ;
#173 = ORIENTED_EDGE ( 'NONE', *, *, #165, .F. ) ;
#174 = AXIS2_PLACEMENT_3D ( 'NONE', #42, #22, #132 ) ;
#175 = DIRECTION ( 'NONE',  ( -3.491481338843133355E-15, 1.224646799147353207E-16, -1.000000000000000000 ) ) ;
#176 = EDGE_LOOP ( 'NONE', ( #98 ) ) ;
#177 = ADVANCED_FACE ( 'NONE', ( #60, #247 ), #30, .T. ) ;
#178 = DIRECTION ( 'NONE',  ( 4.275831445896958607E-31, 1.000000000000000000, 1.224646799147353207E-16 ) ) ;
#179 = SHAPE_DEFINITION_REPRESENTATION ( #27, #254 ) ;
#180 = CC_DESIGN_DATE_AND_TIME_ASSIGNMENT ( #111, #167, ( #106 ) ) ;
#181 = PLANE ( 'NONE',  #74 ) ;
#182 = ADVANCED_FACE ( 'NONE', ( #104, #211 ), #105, .T. ) ;
#183 = VERTEX_POINT ( 'NONE', #248 ) ;
#184 = EDGE_CURVE ( 'NONE', #53, #53, #169, .T. ) ;
#185 = FACE_BOUND ( 'NONE', #16, .T. ) ;
#186 = CARTESIAN_POINT ( 'NONE',  ( -1.282749433769087757E-30, 0.0000000000000000000, -3.673940397442059868E-16 ) ) ;
#187 = AXIS2_PLACEMENT_3D ( 'NONE', #195, #203, #135 ) ;
#188 = PERSON_AND_ORGANIZATION ( #17, #68 ) ;
#189 = APPLICATION_PROTOCOL_DEFINITION ( 'international standard', 'config_control_design', 1994, #241 ) ;
#190 = EDGE_CURVE ( 'NONE', #145, #145, #204, .T. ) ;
#191 = CARTESIAN_POINT ( 'NONE',  ( 2.000000000000000000, 0.0000000000000000000, -8.284005284668872031E-15 ) ) ;
#192 = CC_DESIGN_APPROVAL ( #249, ( #9 ) ) ;
#193 =( NAMED_UNIT ( * ) SI_UNIT ( $, .STERADIAN. ) SOLID_ANGLE_UNIT ( ) );
#194 = APPROVAL_ROLE ( '' ) ;
#195 = CARTESIAN_POINT ( 'NONE',  ( 8.815990380578911407E-14, 0.0000000000000000000, 25.24999999999999645 ) ) ;
#196 = CLOSED_SHELL ( 'NONE', ( #56, #57, #177, #121 ) ) ;
#197 = FACE_OUTER_BOUND ( 'NONE', #73, .T. ) ;
#198 = CC_DESIGN_SECURITY_CLASSIFICATION ( #106, ( #159 ) ) ;
#199 = DIRECTION ( 'NONE',  ( 3.491481338843133355E-15, -1.224646799147353207E-16, 1.000000000000000000 ) ) ;
#200 = EDGE_LOOP ( 'NONE', ( #100 ) ) ;
#201 = APPROVAL ( #89, 'UNSPECIFIED' ) ;
#202 = CARTESIAN_POINT ( 'NONE',  ( 2.304377683636468267E-13, -8.082668874372532400E-15, 66.00000000000000000 ) ) ;
#203 = DIRECTION ( 'NONE',  ( 3.491481338843133355E-15, -0.0000000000000000000, 1.000000000000000000 ) ) ;
#204 = CIRCLE ( 'NONE', #65, 3.000000000000000000 ) ;
#205 = DIRECTION ( 'NONE',  ( 1.000000000000000000, 0.0000000000000000000, -3.469446951953616161E-15 ) ) ;
#206 = CARTESIAN_POINT ( 'NONE',  ( -4.542565983319587431E-30, 0.0000000000000000000, -1.301042606982605321E-15 ) ) ;
#207 = ADVANCED_FACE ( 'NONE', ( #185, #3 ), #252, .T. ) ;
#208 = MECHANICAL_CONTEXT ( 'NONE', #241, 'mechanical' ) ;
#209 = APPROVAL_DATE_TIME ( #5, #164 ) ;
#210 = PRODUCT ( '56628', '56628', '', ( #208 ) ) ;
#211 = FACE_OUTER_BOUND ( 'NONE', #153, .T. ) ;
#212 = EDGE_LOOP ( 'NONE', ( #217 ) ) ;
#213 = DIRECTION ( 'NONE',  ( -4.275831445896958607E-31, -1.000000000000000000, -1.224646799147353207E-16 ) ) ;
#214 = FACE_OUTER_BOUND ( 'NONE', #200, .T. ) ;
#215 = CARTESIAN_POINT ( 'NONE',  ( -6.413747168845438786E-31, 2.249639673992786412E-32, -1.836970198721029934E-16 ) ) ;
#216 = FACE_OUTER_BOUND ( 'NONE', #176, .T. ) ;
#217 = ORIENTED_EDGE ( 'NONE', *, *, #18, .T. ) ;
#218 = CARTESIAN_POINT ( 'NONE',  ( 2.286920276942253168E-13, -8.021436534415166404E-15, 65.50000000000001421 ) ) ;
#219 = DIRECTION ( 'NONE',  ( 3.491481338843133355E-15, -0.0000000000000000000, 1.000000000000000000 ) ) ;
#220 = DATE_AND_TIME ( #151, #129 ) ;
#221 = DIRECTION ( 'NONE',  ( 1.000000000000000000, 0.0000000000000000000, -3.469446951953614189E-15 ) ) ;
#222 = AXIS2_PLACEMENT_3D ( 'NONE', #160, #230, #64 ) ;
#223 = PERSON_AND_ORGANIZATION_ROLE ( 'classification_officer' ) ;
#224 = CALENDAR_DATE ( 2021, 18, 11 ) ;
#225 = CALENDAR_DATE ( 2021, 18, 11 ) ;
#226 = CC_DESIGN_PERSON_AND_ORGANIZATION_ASSIGNMENT ( #171, #4, ( #9 ) ) ;
#227 = COORDINATED_UNIVERSAL_TIME_OFFSET ( 1, 0, .AHEAD. ) ;
#228 = DATE_AND_TIME ( #224, #109 ) ;
#229 = AXIS2_PLACEMENT_3D ( 'NONE', #116, #199, #213 ) ;
#230 = DIRECTION ( 'NONE',  ( 3.491481338843133355E-15, -1.224646799147353207E-16, 1.000000000000000000 ) ) ;
#231 = CARTESIAN_POINT ( 'NONE',  ( 3.142333204958819389E-14, -1.102182119232617517E-15, 8.999999999999998224 ) ) ;
#232 = EDGE_LOOP ( 'NONE', ( #77 ) ) ;
#233 = CARTESIAN_POINT ( 'NONE',  ( 8.379555213223520053E-14, 0.0000000000000000000, 24.00000000000000000 ) ) ;
#234 = AXIS2_PLACEMENT_3D ( 'NONE', #131, #6, #128 ) ;
#235 = EDGE_LOOP ( 'NONE', ( #255 ) ) ;
#236 = DIRECTION ( 'NONE',  ( 3.491481338843133355E-15, -0.0000000000000000000, 1.000000000000000000 ) ) ;
#237 = CC_DESIGN_DATE_AND_TIME_ASSIGNMENT ( #228, #93, ( #9 ) ) ;
#238 = CARTESIAN_POINT ( 'NONE',  ( 3.491481338843129017E-15, 0.0000000000000000000, 0.9999999999999986677 ) ) ;
#239 = APPROVAL_PERSON_ORGANIZATION ( #72, #201, #168 ) ;
#240 = VERTEX_POINT ( 'NONE', #67 ) ;
#241 = APPLICATION_CONTEXT ( 'configuration controlled 3d designs of mechanical parts and assemblies' ) ;
#242 = CC_DESIGN_PERSON_AND_ORGANIZATION_ASSIGNMENT ( #69, #223, ( #106 ) ) ;
#243 = DIRECTION ( 'NONE',  ( 3.491481338843133355E-15, -0.0000000000000000000, 1.000000000000000000 ) ) ;
#244 = ADVANCED_FACE ( 'NONE', ( #103 ), #181, .F. ) ;
#245 = AXIS2_PLACEMENT_3D ( 'NONE', #215, #12, #178 ) ;
#246 = COORDINATED_UNIVERSAL_TIME_OFFSET ( 1, 0, .AHEAD. ) ;
#247 = FACE_OUTER_BOUND ( 'NONE', #118, .T. ) ;
#248 = CARTESIAN_POINT ( 'NONE',  ( 2.286920276942253168E-13, 2.999999999999988898, 65.50000000000001421 ) ) ;
#249 = APPROVAL ( #91, 'UNSPECIFIED' ) ;
#250 = FACE_BOUND ( 'NONE', #212, .T. ) ;
#251 = EDGE_LOOP ( 'NONE', ( #259 ) ) ;
#252 = CONICAL_SURFACE ( 'NONE', #35, 2.999999999999996447, 0.7853981633974410625 ) ;
#253 = ORIENTED_EDGE ( 'NONE', *, *, #18, .F. ) ;
#254 = ADVANCED_BREP_SHAPE_REPRESENTATION ( '56628', ( #261, #260, #234 ), #117 ) ;
#255 = ORIENTED_EDGE ( 'NONE', *, *, #144, .F. ) ;
#256 = APPLICATION_CONTEXT ( 'configuration controlled 3d designs of mechanical parts and assemblies' ) ;
#257 = DIRECTION ( 'NONE',  ( 3.491481338843133355E-15, -0.0000000000000000000, 1.000000000000000000 ) ) ;
#258 = EDGE_LOOP ( 'NONE', ( #75 ) ) ;
#259 = ORIENTED_EDGE ( 'NONE', *, *, #150, .T. ) ;
#260 = MANIFOLD_SOLID_BREP ( 'Corps-Déplacer/Copier1[2]', #196 ) ;
#261 = MANIFOLD_SOLID_BREP ( 'Corps-Déplacer/Copier1[1]', #161 ) ;
#262 = CARTESIAN_POINT ( 'NONE',  ( 2.304377683636468267E-13, 2.500000000000009326, 66.00000000000000000 ) ) ;
#263 = AXIS2_PLACEMENT_3D ( 'NONE', #122, #40, #94 ) ;
ENDSEC;
END-ISO-10303-21;
