ISO-10303-21;
HEADER;
FILE_DESCRIPTION (( 'STEP AP203' ),
    '1' );
FILE_NAME ('56627.step',
    '2021-11-18T08:13:06',
    ( '' ),
    ( '' ),
    'SwSTEP 2.0',
    'SolidWorks 2019',
    '' );
FILE_SCHEMA (( 'CONFIG_CONTROL_DESIGN' ));
ENDSEC;

DATA;
#1 = FACE_OUTER_BOUND ( 'NONE', #67, .T. ) ;
#2 = DIRECTION ( 'NONE',  ( -3.491481338843133355E-15, 1.224646799147353207E-16, -1.000000000000000000 ) ) ;
#3 = CIRCLE ( 'NONE', #98, 2.999999999999996447 ) ;
#4 = FACE_OUTER_BOUND ( 'NONE', #24, .T. ) ;
#5 =( NAMED_UNIT ( * ) SI_UNIT ( $, .STERADIAN. ) SOLID_ANGLE_UNIT ( ) );
#6 = CC_DESIGN_PERSON_AND_ORGANIZATION_ASSIGNMENT ( #194, #21, ( #26 ) ) ;
#7 = VERTEX_POINT ( 'NONE', #247 ) ;
#8 = DIRECTION ( 'NONE',  ( 1.000000000000000000, 0.0000000000000000000, 0.0000000000000000000 ) ) ;
#9 = CC_DESIGN_SECURITY_CLASSIFICATION ( #231, ( #99 ) ) ;
#10 = CARTESIAN_POINT ( 'NONE',  ( 3.142333204958820020E-14, 2.249639673992784496E-32, 9.000000000000000000 ) ) ;
#11 = APPLICATION_PROTOCOL_DEFINITION ( 'international standard', 'config_control_design', 1994, #94 ) ;
#12 = CONICAL_SURFACE ( 'NONE', #206, 3.999999999999996447, 0.7853981633974492782 ) ;
#13 = CC_DESIGN_APPROVAL ( #119, ( #231 ) ) ;
#14 = APPROVAL_STATUS ( 'not_yet_approved' ) ;
#15 = PERSON_AND_ORGANIZATION_ROLE ( 'creator' ) ;
#16 = EDGE_LOOP ( 'NONE', ( #193 ) ) ;
#17 = EDGE_LOOP ( 'NONE', ( #243 ) ) ;
#18 = ADVANCED_FACE ( 'NONE', ( #41 ), #71, .F. ) ;
#19 = ORIENTED_EDGE ( 'NONE', *, *, #162, .F. ) ;
#20 = FACE_OUTER_BOUND ( 'NONE', #234, .T. ) ;
#21 = PERSON_AND_ORGANIZATION_ROLE ( 'creator' ) ;
#22 = PERSON_AND_ORGANIZATION ( #241, #179 ) ;
#23 = CARTESIAN_POINT ( 'NONE',  ( 0.0000000000000000000, 0.0000000000000000000, 0.0000000000000000000 ) ) ;
#24 = EDGE_LOOP ( 'NONE', ( #256 ) ) ;
#25 = CIRCLE ( 'NONE', #64, 3.000000000000000000 ) ;
#26 = PRODUCT_DEFINITION ( 'UNKNOWN', '', #99, #114 ) ;
#27 = CARTESIAN_POINT ( 'NONE',  ( -1.282749433769087757E-30, 0.0000000000000000000, -3.673940397442059868E-16 ) ) ;
#28 = CARTESIAN_POINT ( 'NONE',  ( 3.142333204958820020E-14, -1.102182119232617714E-15, 9.000000000000000000 ) ) ;
#29 = VERTEX_POINT ( 'NONE', #95 ) ;
#30 = CARTESIAN_POINT ( 'NONE',  ( 2.304377683636468267E-13, -8.082668874372532400E-15, 66.00000000000000000 ) ) ;
#31 = PLANE ( 'NONE',  #200 ) ;
#32 = APPROVAL_ROLE ( '' ) ;
#33 = CIRCLE ( 'NONE', #75, 2.500000000000003553 ) ;
#34 = EDGE_LOOP ( 'NONE', ( #19 ) ) ;
#35 = AXIS2_PLACEMENT_3D ( 'NONE', #223, #249, #150 ) ;
#36 = CALENDAR_DATE ( 2021, 18, 11 ) ;
#37 = CLOSED_SHELL ( 'NONE', ( #131, #122, #263, #250, #61, #18 ) ) ;
#38 = PERSON_AND_ORGANIZATION ( #241, #179 ) ;
#39 = CALENDAR_DATE ( 2021, 18, 11 ) ;
#40 = FACE_OUTER_BOUND ( 'NONE', #34, .T. ) ;
#41 = FACE_OUTER_BOUND ( 'NONE', #172, .T. ) ;
#42 = DATE_TIME_ROLE ( 'creation_date' ) ;
#43 = LOCAL_TIME ( 9, 13, 6.000000000000000000, #59 ) ;
#44 = DIRECTION ( 'NONE',  ( 1.000000000000000000, 0.0000000000000000000, -3.784851220313033947E-15 ) ) ;
#45 = DIRECTION ( 'NONE',  ( 3.491481338843133355E-15, -0.0000000000000000000, 1.000000000000000000 ) ) ;
#46 = CC_DESIGN_APPROVAL ( #56, ( #99 ) ) ;
#47 = FACE_OUTER_BOUND ( 'NONE', #17, .T. ) ;
#48 = DIRECTION ( 'NONE',  ( 0.0000000000000000000, 1.000000000000000000, 0.0000000000000000000 ) ) ;
#49 = EDGE_CURVE ( 'NONE', #186, #186, #237, .T. ) ;
#50 = CARTESIAN_POINT ( 'NONE',  ( 0.0000000000000000000, 0.0000000000000000000, 0.0000000000000000000 ) ) ;
#51 = PERSON_AND_ORGANIZATION_ROLE ( 'design_owner' ) ;
#52 = AXIS2_PLACEMENT_3D ( 'NONE', #140, #195, #198 ) ;
#53 = AXIS2_PLACEMENT_3D ( 'NONE', #27, #203, #230 ) ;
#54 = FACE_OUTER_BOUND ( 'NONE', #262, .T. ) ;
#55 = DIRECTION ( 'NONE',  ( -3.491481338843133355E-15, 1.224646799147353207E-16, -1.000000000000000000 ) ) ;
#56 = APPROVAL ( #96, 'UNSPECIFIED' ) ;
#57 = DATE_AND_TIME ( #36, #126 ) ;
#58 = EDGE_LOOP ( 'NONE', ( #106 ) ) ;
#59 = COORDINATED_UNIVERSAL_TIME_OFFSET ( 1, 0, .AHEAD. ) ;
#60 = LOCAL_TIME ( 9, 13, 6.000000000000000000, #259 ) ;
#61 = ADVANCED_FACE ( 'NONE', ( #1, #240 ), #12, .T. ) ;
#62 = ORIENTED_EDGE ( 'NONE', *, *, #154, .F. ) ;
#63 = COORDINATED_UNIVERSAL_TIME_OFFSET ( 1, 0, .AHEAD. ) ;
#64 = AXIS2_PLACEMENT_3D ( 'NONE', #28, #117, #48 ) ;
#65 = APPROVAL_PERSON_ORGANIZATION ( #221, #236, #103 ) ;
#66 = FACE_OUTER_BOUND ( 'NONE', #105, .T. ) ;
#67 = EDGE_LOOP ( 'NONE', ( #232 ) ) ;
#68 = DIRECTION ( 'NONE',  ( 1.000000000000000000, 0.0000000000000000000, -3.491481338843133355E-15 ) ) ;
#69 = CIRCLE ( 'NONE', #104, 2.999999999999998224 ) ;
#70 = DIRECTION ( 'NONE',  ( 3.491481338843133355E-15, -1.224646799147353207E-16, 1.000000000000000000 ) ) ;
#71 = PLANE ( 'NONE',  #254 ) ;
#72 = CARTESIAN_POINT ( 'NONE',  ( 3.142333204958820020E-14, 0.0000000000000000000, 9.000000000000000000 ) ) ;
#73 = FACE_OUTER_BOUND ( 'NONE', #171, .T. ) ;
#74 = CIRCLE ( 'NONE', #212, 3.000000000000000000 ) ;
#75 = AXIS2_PLACEMENT_3D ( 'NONE', #30, #55, #167 ) ;
#76 = CARTESIAN_POINT ( 'NONE',  ( 2.750000000000083489, 0.0000000000000000000, 23.99999999999998934 ) ) ;
#77 = DIRECTION ( 'NONE',  ( 0.0000000000000000000, 0.0000000000000000000, 1.000000000000000000 ) ) ;
#78 = EDGE_CURVE ( 'NONE', #188, #188, #69, .T. ) ;
#79 = PERSON_AND_ORGANIZATION_ROLE ( 'classification_officer' ) ;
#80 = ORIENTED_EDGE ( 'NONE', *, *, #86, .T. ) ;
#81 = COORDINATED_UNIVERSAL_TIME_OFFSET ( 1, 0, .AHEAD. ) ;
#82 = FACE_OUTER_BOUND ( 'NONE', #155, .T. ) ;
#83 = TOROIDAL_SURFACE ( 'NONE', #156, 2.500000000000000000, 0.5000000000000000000 ) ;
#84 = CC_DESIGN_DATE_AND_TIME_ASSIGNMENT ( #57, #192, ( #231 ) ) ;
#85 = LOCAL_TIME ( 9, 13, 6.000000000000000000, #178 ) ;
#86 = EDGE_CURVE ( 'NONE', #165, #165, #92, .T. ) ;
#87 = APPLICATION_CONTEXT ( 'configuration controlled 3d designs of mechanical parts and assemblies' ) ;
#88 = CYLINDRICAL_SURFACE ( 'NONE', #168, 2.999999999999998224 ) ;
#89 = MANIFOLD_SOLID_BREP ( 'Corps-Déplacer/Copier1[1]', #37 ) ;
#90 = PRODUCT ( '56627', '56627', '', ( #163 ) ) ;
#91 = DIRECTION ( 'NONE',  ( 4.275831445896958607E-31, 1.000000000000000000, 1.224646799147353454E-16 ) ) ;
#92 = CIRCLE ( 'NONE', #160, 2.500000000000000000 ) ;
#93 = FACE_OUTER_BOUND ( 'NONE', #139, .T. ) ;
#94 = APPLICATION_CONTEXT ( 'configuration controlled 3d designs of mechanical parts and assemblies' ) ;
#95 = CARTESIAN_POINT ( 'NONE',  ( 2.750000000000031086, 0.0000000000000000000, 8.999999999999989342 ) ) ;
#96 = APPROVAL_STATUS ( 'not_yet_approved' ) ;
#97 = CARTESIAN_POINT ( 'NONE',  ( 2.304377683636468267E-13, 2.499999999999995115, 66.00000000000000000 ) ) ;
#98 = AXIS2_PLACEMENT_3D ( 'NONE', #161, #261, #216 ) ;
#99 = PRODUCT_DEFINITION_FORMATION_WITH_SPECIFIED_SOURCE ( 'ANY', '', #90, .NOT_KNOWN. ) ;
#100 = PERSON_AND_ORGANIZATION ( #241, #179 ) ;
#101 = ADVANCED_FACE ( 'NONE', ( #82, #40 ), #83, .T. ) ;
#102 = CALENDAR_DATE ( 2021, 18, 11 ) ;
#103 = APPROVAL_ROLE ( '' ) ;
#104 = AXIS2_PLACEMENT_3D ( 'NONE', #144, #124, #128 ) ;
#105 = EDGE_LOOP ( 'NONE', ( #181 ) ) ;
#106 = ORIENTED_EDGE ( 'NONE', *, *, #49, .T. ) ;
#107 = PERSON_AND_ORGANIZATION ( #241, #179 ) ;
#108 = DIRECTION ( 'NONE',  ( -4.275831445896958607E-31, -1.000000000000000000, -1.224646799147353207E-16 ) ) ;
#109 = CARTESIAN_POINT ( 'NONE',  ( 8.379555213223520053E-14, 0.0000000000000000000, 24.00000000000000000 ) ) ;
#110 = CARTESIAN_POINT ( 'NONE',  ( 3.142333204958820020E-14, 2.249639673992784496E-32, 9.000000000000000000 ) ) ;
#111 = DIRECTION ( 'NONE',  ( -3.491481338843133355E-15, 1.224646799147353207E-16, -1.000000000000000000 ) ) ;
#112 =( NAMED_UNIT ( * ) PLANE_ANGLE_UNIT ( ) SI_UNIT ( $, .RADIAN. ) );
#113 = DIRECTION ( 'NONE',  ( 3.491481338843133355E-15, -0.0000000000000000000, 1.000000000000000000 ) ) ;
#114 = DESIGN_CONTEXT ( 'detailed design', #87, 'design' ) ;
#115 = APPROVAL_PERSON_ORGANIZATION ( #22, #56, #32 ) ;
#116 = CYLINDRICAL_SURFACE ( 'NONE', #53, 2.750000000000000000 ) ;
#117 = DIRECTION ( 'NONE',  ( -3.491481338843133355E-15, 1.224646799147353207E-16, -1.000000000000000000 ) ) ;
#118 = AXIS2_PLACEMENT_3D ( 'NONE', #72, #113, #133 ) ;
#119 = APPROVAL ( #123, 'UNSPECIFIED' ) ;
#120 = ORIENTED_EDGE ( 'NONE', *, *, #78, .T. ) ;
#121 = CLOSED_SHELL ( 'NONE', ( #141, #219, #101, #134 ) ) ;
#122 = ADVANCED_FACE ( 'NONE', ( #242, #180 ), #183, .T. ) ;
#123 = APPROVAL_STATUS ( 'not_yet_approved' ) ;
#124 = DIRECTION ( 'NONE',  ( 3.491481338843133355E-15, -0.0000000000000000000, 1.000000000000000000 ) ) ;
#125 = CYLINDRICAL_SURFACE ( 'NONE', #151, 3.000000000000000000 ) ;
#126 = LOCAL_TIME ( 9, 13, 6.000000000000000000, #81 ) ;
#127 = DIRECTION ( 'NONE',  ( 1.000000000000000000, 0.0000000000000000000, -3.469446951953617344E-15 ) ) ;
#128 = DIRECTION ( 'NONE',  ( 1.000000000000000000, 0.0000000000000000000, -3.469446951953616161E-15 ) ) ;
#129 = CARTESIAN_POINT ( 'NONE',  ( 1.745740669421562536E-15, 0.0000000000000000000, 0.4999999999999988343 ) ) ;
#130 = CC_DESIGN_APPROVAL ( #236, ( #26 ) ) ;
#131 = ADVANCED_FACE ( 'NONE', ( #66, #20 ), #88, .T. ) ;
#132 = DIRECTION ( 'NONE',  ( 3.491481338843133355E-15, -0.0000000000000000000, 1.000000000000000000 ) ) ;
#133 = DIRECTION ( 'NONE',  ( 1.000000000000000000, 0.0000000000000000000, -3.784851220313033947E-15 ) ) ;
#134 = ADVANCED_FACE ( 'NONE', ( #184 ), #217, .T. ) ;
#135 = CARTESIAN_POINT ( 'NONE',  ( 3.142333204958820020E-14, 2.999999999999998668, 9.000000000000000000 ) ) ;
#136 = DATE_AND_TIME ( #102, #43 ) ;
#137 = ORIENTED_EDGE ( 'NONE', *, *, #86, .F. ) ;
#138 = AXIS2_PLACEMENT_3D ( 'NONE', #50, #77, #8 ) ;
#139 = EDGE_LOOP ( 'NONE', ( #191 ) ) ;
#140 = CARTESIAN_POINT ( 'NONE',  ( -6.413747168845438786E-31, 2.249639673992786412E-32, -1.836970198721029934E-16 ) ) ;
#141 = ADVANCED_FACE ( 'NONE', ( #4, #93 ), #125, .T. ) ;
#142 = CARTESIAN_POINT ( 'NONE',  ( 2.286920276942252663E-13, -8.021436534415164826E-15, 65.50000000000000000 ) ) ;
#143 = DIRECTION ( 'NONE',  ( -3.491481338843133355E-15, 1.224646799147353207E-16, -1.000000000000000000 ) ) ;
#144 = CARTESIAN_POINT ( 'NONE',  ( 8.466842246694598071E-14, 0.0000000000000000000, 24.24999999999999645 ) ) ;
#145 = CC_DESIGN_DATE_AND_TIME_ASSIGNMENT ( #224, #42, ( #26 ) ) ;
#146 = DIRECTION ( 'NONE',  ( 1.000000000000000000, 0.0000000000000000000, -3.505587024369797538E-15 ) ) ;
#147 = PRODUCT_DEFINITION_SHAPE ( 'NONE', 'NONE',  #26 ) ;
#148 = FACE_OUTER_BOUND ( 'NONE', #209, .T. ) ;
#149 = VERTEX_POINT ( 'NONE', #97 ) ;
#150 = DIRECTION ( 'NONE',  ( 4.275831445896958607E-31, 1.000000000000000000, 1.224646799147353207E-16 ) ) ;
#151 = AXIS2_PLACEMENT_3D ( 'NONE', #23, #2, #177 ) ;
#152 = DIRECTION ( 'NONE',  ( -4.275831445896958607E-31, -1.000000000000000000, -1.224646799147353207E-16 ) ) ;
#153 = CALENDAR_DATE ( 2021, 18, 11 ) ;
#154 = EDGE_CURVE ( 'NONE', #248, #248, #3, .T. ) ;
#155 = EDGE_LOOP ( 'NONE', ( #80 ) ) ;
#156 = AXIS2_PLACEMENT_3D ( 'NONE', #129, #244, #199 ) ;
#157 = ORIENTED_EDGE ( 'NONE', *, *, #49, .F. ) ;
#158 = CC_DESIGN_PERSON_AND_ORGANIZATION_ASSIGNMENT ( #190, #79, ( #231 ) ) ;
#159 = ORIENTED_EDGE ( 'NONE', *, *, #229, .T. ) ;
#160 = AXIS2_PLACEMENT_3D ( 'NONE', #222, #45, #68 ) ;
#161 = CARTESIAN_POINT ( 'NONE',  ( 2.286920276942252663E-13, -8.021436534415164826E-15, 65.50000000000000000 ) ) ;
#162 = EDGE_CURVE ( 'NONE', #7, #7, #74, .T. ) ;
#163 = MECHANICAL_CONTEXT ( 'NONE', #94, 'mechanical' ) ;
#164 = CALENDAR_DATE ( 2021, 18, 11 ) ;
#165 = VERTEX_POINT ( 'NONE', #185 ) ;
#166 = PLANE ( 'NONE',  #35 ) ;
#167 = DIRECTION ( 'NONE',  ( 0.0000000000000000000, 1.000000000000000000, 0.0000000000000000000 ) ) ;
#168 = AXIS2_PLACEMENT_3D ( 'NONE', #197, #143, #91 ) ;
#169 = CC_DESIGN_PERSON_AND_ORGANIZATION_ASSIGNMENT ( #107, #255, ( #99 ) ) ;
#170 = APPROVAL_DATE_TIME ( #213, #56 ) ;
#171 = EDGE_LOOP ( 'NONE', ( #157 ) ) ;
#172 = EDGE_LOOP ( 'NONE', ( #252 ) ) ;
#173 = DATE_AND_TIME ( #39, #60 ) ;
#174 = AXIS2_PLACEMENT_3D ( 'NONE', #109, #220, #44 ) ;
#175 = ORIENTED_EDGE ( 'NONE', *, *, #257, .F. ) ;
#176 = APPROVAL_ROLE ( '' ) ;
#177 = DIRECTION ( 'NONE',  ( 4.275831445896959482E-31, 1.000000000000000000, 1.224646799147353207E-16 ) ) ;
#178 = COORDINATED_UNIVERSAL_TIME_OFFSET ( 1, 0, .AHEAD. ) ;
#179 = ORGANIZATION ( 'UNSPECIFIED', 'UNSPECIFIED', '' ) ;
#180 = FACE_OUTER_BOUND ( 'NONE', #233, .T. ) ;
#181 = ORIENTED_EDGE ( 'NONE', *, *, #154, .T. ) ;
#182 = CARTESIAN_POINT ( 'NONE',  ( 8.815990380578910144E-14, 0.0000000000000000000, 25.24999999999999289 ) ) ;
#183 = CONICAL_SURFACE ( 'NONE', #227, 2.999999999999996447, 0.7853981633974410625 ) ;
#184 = FACE_OUTER_BOUND ( 'NONE', #258, .T. ) ;
#185 = CARTESIAN_POINT ( 'NONE',  ( 2.500000000000000000, 0.0000000000000000000, -9.921325736841888266E-15 ) ) ;
#186 = VERTEX_POINT ( 'NONE', #76 ) ;
#187 =( LENGTH_UNIT ( ) NAMED_UNIT ( * ) SI_UNIT ( .MILLI., .METRE. ) );
#188 = VERTEX_POINT ( 'NONE', #226 ) ;
#189 = CIRCLE ( 'NONE', #118, 2.750000000000000000 ) ;
#190 = PERSON_AND_ORGANIZATION ( #241, #179 ) ;
#191 = ORIENTED_EDGE ( 'NONE', *, *, #208, .T. ) ;
#192 = DATE_TIME_ROLE ( 'classification_date' ) ;
#193 = ORIENTED_EDGE ( 'NONE', *, *, #257, .T. ) ;
#194 = PERSON_AND_ORGANIZATION ( #241, #179 ) ;
#195 = DIRECTION ( 'NONE',  ( -3.491481338843133355E-15, 1.224646799147353207E-16, -1.000000000000000000 ) ) ;
#196 = LOCAL_TIME ( 9, 13, 6.000000000000000000, #63 ) ;
#197 = CARTESIAN_POINT ( 'NONE',  ( 0.0000000000000000000, 0.0000000000000000000, 0.0000000000000000000 ) ) ;
#198 = DIRECTION ( 'NONE',  ( 4.275831445896958607E-31, 1.000000000000000000, 1.224646799147353207E-16 ) ) ;
#199 = DIRECTION ( 'NONE',  ( 1.000000000000000000, 0.0000000000000000000, -3.491481338843133355E-15 ) ) ;
#200 = AXIS2_PLACEMENT_3D ( 'NONE', #10, #225, #152 ) ;
#201 = CARTESIAN_POINT ( 'NONE',  ( 2.286920276942252663E-13, 2.999999999999988898, 65.50000000000000000 ) ) ;
#202 = ADVANCED_BREP_SHAPE_REPRESENTATION ( '56627', ( #89, #260, #138 ), #228 ) ;
#203 = DIRECTION ( 'NONE',  ( 3.491481338843133355E-15, -0.0000000000000000000, 1.000000000000000000 ) ) ;
#204 = VERTEX_POINT ( 'NONE', #135 ) ;
#205 = APPLICATION_PROTOCOL_DEFINITION ( 'international standard', 'config_control_design', 1994, #87 ) ;
#206 = AXIS2_PLACEMENT_3D ( 'NONE', #182, #218, #127 ) ;
#207 = CARTESIAN_POINT ( 'NONE',  ( 1.745740669421562536E-15, 0.0000000000000000000, 0.4999999999999988343 ) ) ;
#208 = EDGE_CURVE ( 'NONE', #204, #204, #25, .T. ) ;
#209 = EDGE_LOOP ( 'NONE', ( #175 ) ) ;
#210 = CC_DESIGN_PERSON_AND_ORGANIZATION_ASSIGNMENT ( #246, #51, ( #90 ) ) ;
#211 = APPROVAL_DATE_TIME ( #136, #119 ) ;
#212 = AXIS2_PLACEMENT_3D ( 'NONE', #207, #132, #146 ) ;
#213 = DATE_AND_TIME ( #153, #196 ) ;
#214 = APPROVAL_DATE_TIME ( #173, #236 ) ;
#215 = CC_DESIGN_PERSON_AND_ORGANIZATION_ASSIGNMENT ( #100, #15, ( #99 ) ) ;
#216 = DIRECTION ( 'NONE',  ( 0.0000000000000000000, 1.000000000000000000, 0.0000000000000000000 ) ) ;
#217 = PLANE ( 'NONE',  #52 ) ;
#218 = DIRECTION ( 'NONE',  ( 3.491481338843133355E-15, -0.0000000000000000000, 1.000000000000000000 ) ) ;
#219 = ADVANCED_FACE ( 'NONE', ( #47 ), #31, .T. ) ;
#220 = DIRECTION ( 'NONE',  ( 3.491481338843133355E-15, -0.0000000000000000000, 1.000000000000000000 ) ) ;
#221 = PERSON_AND_ORGANIZATION ( #241, #179 ) ;
#222 = CARTESIAN_POINT ( 'NONE',  ( -4.164018818042955203E-30, 0.0000000000000000000, -1.192622389734054877E-15 ) ) ;
#223 = CARTESIAN_POINT ( 'NONE',  ( 2.304377683636468267E-13, 1.874699728327312431E-32, 66.00000000000000000 ) ) ;
#224 = DATE_AND_TIME ( #164, #85 ) ;
#225 = DIRECTION ( 'NONE',  ( 3.491481338843133355E-15, -1.224646799147353207E-16, 1.000000000000000000 ) ) ;
#226 = CARTESIAN_POINT ( 'NONE',  ( 3.000000000000083045, 0.0000000000000000000, 24.24999999999998579 ) ) ;
#227 = AXIS2_PLACEMENT_3D ( 'NONE', #142, #111, #239 ) ;
#228 =( GEOMETRIC_REPRESENTATION_CONTEXT ( 3 ) GLOBAL_UNCERTAINTY_ASSIGNED_CONTEXT ( ( #245 ) ) GLOBAL_UNIT_ASSIGNED_CONTEXT ( ( #187, #112, #5 ) ) REPRESENTATION_CONTEXT ( 'NONE', 'WORKASPACE' ) );
#229 = EDGE_CURVE ( 'NONE', #29, #29, #189, .T. ) ;
#230 = DIRECTION ( 'NONE',  ( 1.000000000000000000, 0.0000000000000000000, -3.491481338843133355E-15 ) ) ;
#231 = SECURITY_CLASSIFICATION ( '', '', #251 ) ;
#232 = ORIENTED_EDGE ( 'NONE', *, *, #78, .F. ) ;
#233 = EDGE_LOOP ( 'NONE', ( #62 ) ) ;
#234 = EDGE_LOOP ( 'NONE', ( #120 ) ) ;
#235 = PRODUCT_RELATED_PRODUCT_CATEGORY ( 'detail', '', ( #90 ) ) ;
#236 = APPROVAL ( #14, 'UNSPECIFIED' ) ;
#237 = CIRCLE ( 'NONE', #174, 2.750000000000000000 ) ;
#238 = APPROVAL_PERSON_ORGANIZATION ( #38, #119, #176 ) ;
#239 = DIRECTION ( 'NONE',  ( 0.0000000000000000000, 1.000000000000000000, 0.0000000000000000000 ) ) ;
#240 = FACE_BOUND ( 'NONE', #58, .T. ) ;
#241 = PERSON ( 'UNSPECIFIED', 'UNSPECIFIED', 'UNSPECIFIED', ('UNSPECIFIED'), ('UNSPECIFIED'), ('UNSPECIFIED') ) ;
#242 = FACE_BOUND ( 'NONE', #16, .T. ) ;
#243 = ORIENTED_EDGE ( 'NONE', *, *, #208, .F. ) ;
#244 = DIRECTION ( 'NONE',  ( 3.491481338843133355E-15, -0.0000000000000000000, 1.000000000000000000 ) ) ;
#245 = UNCERTAINTY_MEASURE_WITH_UNIT (LENGTH_MEASURE( 1.000000000000000082E-05 ), #187, 'distance_accuracy_value', 'NONE');
#246 = PERSON_AND_ORGANIZATION ( #241, #179 ) ;
#247 = CARTESIAN_POINT ( 'NONE',  ( 3.000000000000001776, 0.0000000000000000000, 0.4999999999999882871 ) ) ;
#248 = VERTEX_POINT ( 'NONE', #201 ) ;
#249 = DIRECTION ( 'NONE',  ( -3.491481338843133355E-15, 1.224646799147353207E-16, -1.000000000000000000 ) ) ;
#250 = ADVANCED_FACE ( 'NONE', ( #54, #73 ), #116, .T. ) ;
#251 = SECURITY_CLASSIFICATION_LEVEL ( 'unclassified' ) ;
#252 = ORIENTED_EDGE ( 'NONE', *, *, #229, .F. ) ;
#253 = SHAPE_DEFINITION_REPRESENTATION ( #147, #202 ) ;
#254 = AXIS2_PLACEMENT_3D ( 'NONE', #110, #70, #108 ) ;
#255 = PERSON_AND_ORGANIZATION_ROLE ( 'design_supplier' ) ;
#256 = ORIENTED_EDGE ( 'NONE', *, *, #162, .T. ) ;
#257 = EDGE_CURVE ( 'NONE', #149, #149, #33, .T. ) ;
#258 = EDGE_LOOP ( 'NONE', ( #137 ) ) ;
#259 = COORDINATED_UNIVERSAL_TIME_OFFSET ( 1, 0, .AHEAD. ) ;
#260 = MANIFOLD_SOLID_BREP ( 'Corps-Déplacer/Copier1[2]', #121 ) ;
#261 = DIRECTION ( 'NONE',  ( -3.491481338843133355E-15, 1.224646799147353207E-16, -1.000000000000000000 ) ) ;
#262 = EDGE_LOOP ( 'NONE', ( #159 ) ) ;
#263 = ADVANCED_FACE ( 'NONE', ( #148 ), #166, .F. ) ;
ENDSEC;
END-ISO-10303-21;
