ISO-10303-21;
HEADER;
FILE_DESCRIPTION (( 'STEP AP203' ),
    '1' );
FILE_NAME ('56626.step',
    '2021-10-08T05:54:03',
    ( '' ),
    ( '' ),
    'SwSTEP 2.0',
    'SolidWorks 2019',
    '' );
FILE_SCHEMA (( 'CONFIG_CONTROL_DESIGN' ));
ENDSEC;

DATA;
#1 = UNCERTAINTY_MEASURE_WITH_UNIT (LENGTH_MEASURE( 1.000000000000000082E-05 ), #76, 'distance_accuracy_value', 'NONE');
#2 = ORIENTED_EDGE ( 'NONE', *, *, #28, .T. ) ;
#3 = CIRCLE ( 'NONE', #114, 0.4450000000000000622 ) ;
#4 = CC_DESIGN_PERSON_AND_ORGANIZATION_ASSIGNMENT ( #33, #136, ( #22 ) ) ;
#5 = CARTESIAN_POINT ( 'NONE',  ( 0.0000000000000000000, 0.0000000000000000000, 0.0000000000000000000 ) ) ;
#6 = CARTESIAN_POINT ( 'NONE',  ( 8.970344224289864420E-16, -3.146373208217250948E-17, 0.2569208697893856641 ) ) ;
#7 = FACE_BOUND ( 'NONE', #143, .T. ) ;
#8 = ADVANCED_FACE ( 'NONE', ( #186, #185 ), #31, .T. ) ;
#9 = LOCAL_TIME ( 7, 54, 3.000000000000000000, #63 ) ;
#10 = DIRECTION ( 'NONE',  ( -3.491481338843133355E-15, 1.224646799147353207E-16, -1.000000000000000000 ) ) ;
#11 = APPLICATION_CONTEXT ( 'configuration controlled 3d designs of mechanical parts and assemblies' ) ;
#12 = DIRECTION ( 'NONE',  ( 4.275831445896958607E-31, 1.000000000000000000, 1.224646799147353207E-16 ) ) ;
#13 = PRODUCT_RELATED_PRODUCT_CATEGORY ( 'detail', '', ( #20 ) ) ;
#14 = APPROVAL_ROLE ( '' ) ;
#15 = COORDINATED_UNIVERSAL_TIME_OFFSET ( 1, 0, .AHEAD. ) ;
#16 = PERSON_AND_ORGANIZATION ( #162, #222 ) ;
#17 = ADVANCED_FACE ( 'NONE', ( #203 ), #220, .F. ) ;
#18 = AXIS2_PLACEMENT_3D ( 'NONE', #190, #148, #12 ) ;
#19 = CARTESIAN_POINT ( 'NONE',  ( 2.478951750578624367E-14, 3.336965516422620588E-33, 7.099999999999999645 ) ) ;
#20 = PRODUCT ( '56626', '56626', '', ( #101 ) ) ;
#21 = CARTESIAN_POINT ( 'NONE',  ( 1.047444401652940007E-13, -3.673940397442059178E-15, 30.00000000000000000 ) ) ;
#22 = PRODUCT_DEFINITION_FORMATION_WITH_SPECIFIED_SOURCE ( 'ANY', '', #20, .NOT_KNOWN. ) ;
#23 = ORIENTED_EDGE ( 'NONE', *, *, #159, .T. ) ;
#24 = ORIENTED_EDGE ( 'NONE', *, *, #80, .F. ) ;
#25 = FACE_OUTER_BOUND ( 'NONE', #200, .T. ) ;
#26 = APPROVAL_PERSON_ORGANIZATION ( #79, #72, #216 ) ;
#27 = VERTEX_POINT ( 'NONE', #57 ) ;
#28 = EDGE_CURVE ( 'NONE', #147, #147, #95, .T. ) ;
#29 = CARTESIAN_POINT ( 'NONE',  ( 2.663398154291550553E-14, 0.7499999999999963363, 7.628275496308511094 ) ) ;
#30 = CARTESIAN_POINT ( 'NONE',  ( 0.0000000000000000000, 0.0000000000000000000, 0.0000000000000000000 ) ) ;
#31 = CONICAL_SURFACE ( 'NONE', #184, 0.6500000000000000222, 0.7853981633974510546 ) ;
#32 = DATE_AND_TIME ( #81, #87 ) ;
#33 = PERSON_AND_ORGANIZATION ( #162, #222 ) ;
#34 = DATE_AND_TIME ( #182, #118 ) ;
#35 = APPROVAL_STATUS ( 'not_yet_approved' ) ;
#36 = CARTESIAN_POINT ( 'NONE',  ( 2.478951750578624367E-14, 3.336965516422620588E-33, 7.099999999999999645 ) ) ;
#37 = MANIFOLD_SOLID_BREP ( 'Corps-Déplacer/Copier1[2]', #39 ) ;
#38 = EDGE_LOOP ( 'NONE', ( #24 ) ) ;
#39 = CLOSED_SHELL ( 'NONE', ( #180, #166, #68 ) ) ;
#40 = LOCAL_TIME ( 7, 54, 3.000000000000000000, #120 ) ;
#41 = DIRECTION ( 'NONE',  ( -3.491481338843133355E-15, 1.224646799147353207E-16, -1.000000000000000000 ) ) ;
#42 = VERTEX_POINT ( 'NONE', #210 ) ;
#43 = AXIS2_PLACEMENT_3D ( 'NONE', #78, #144, #59 ) ;
#44 = ADVANCED_BREP_SHAPE_REPRESENTATION ( '56626', ( #110, #37, #70 ), #213 ) ;
#45 = CYLINDRICAL_SURFACE ( 'NONE', #152, 0.7499999999999985567 ) ;
#46 = DIRECTION ( 'NONE',  ( 3.491481338843133355E-15, -1.224646799147353207E-16, 1.000000000000000000 ) ) ;
#47 = DIRECTION ( 'NONE',  ( 0.0000000000000000000, -1.000000000000000000, 0.0000000000000000000 ) ) ;
#48 = APPROVAL ( #35, 'UNSPECIFIED' ) ;
#49 = PERSON_AND_ORGANIZATION ( #162, #222 ) ;
#50 = CC_DESIGN_PERSON_AND_ORGANIZATION_ASSIGNMENT ( #99, #193, ( #98 ) ) ;
#51 = LOCAL_TIME ( 7, 54, 3.000000000000000000, #67 ) ;
#52 = FACE_OUTER_BOUND ( 'NONE', #38, .T. ) ;
#53 = ORIENTED_EDGE ( 'NONE', *, *, #138, .T. ) ;
#54 = APPROVAL_PERSON_ORGANIZATION ( #16, #149, #14 ) ;
#55 = ORIENTED_EDGE ( 'NONE', *, *, #28, .F. ) ;
#56 = FACE_OUTER_BOUND ( 'NONE', #157, .T. ) ;
#57 = CARTESIAN_POINT ( 'NONE',  ( 8.970344224289866393E-16, 0.4449999999999986744, 0.2569208697893857196 ) ) ;
#58 = AXIS2_PLACEMENT_3D ( 'NONE', #96, #109, #47 ) ;
#59 = DIRECTION ( 'NONE',  ( 0.0000000000000000000, 1.000000000000000000, 0.0000000000000000000 ) ) ;
#60 =( NAMED_UNIT ( * ) SI_UNIT ( $, .STERADIAN. ) SOLID_ANGLE_UNIT ( ) );
#61 = FACE_OUTER_BOUND ( 'NONE', #89, .T. ) ;
#62 = DATE_AND_TIME ( #82, #40 ) ;
#63 = COORDINATED_UNIVERSAL_TIME_OFFSET ( 1, 0, .AHEAD. ) ;
#64 = APPLICATION_PROTOCOL_DEFINITION ( 'international standard', 'config_control_design', 1994, #197 ) ;
#65 = AXIS2_PLACEMENT_3D ( 'NONE', #191, #46, #93 ) ;
#66 = PERSON_AND_ORGANIZATION ( #162, #222 ) ;
#67 = COORDINATED_UNIVERSAL_TIME_OFFSET ( 1, 0, .AHEAD. ) ;
#68 = ADVANCED_FACE ( 'NONE', ( #52 ), #88, .T. ) ;
#69 = ORIENTED_EDGE ( 'NONE', *, *, #134, .F. ) ;
#70 = AXIS2_PLACEMENT_3D ( 'NONE', #116, #215, #151 ) ;
#71 = DIRECTION ( 'NONE',  ( -4.275831445896958607E-31, -1.000000000000000000, -1.224646799147353207E-16 ) ) ;
#72 = APPROVAL ( #150, 'UNSPECIFIED' ) ;
#73 = EDGE_LOOP ( 'NONE', ( #90 ) ) ;
#74 = DIRECTION ( 'NONE',  ( -3.491481338843133355E-15, 1.224646799147353207E-16, -1.000000000000000000 ) ) ;
#75 = PLANE ( 'NONE',  #18 ) ;
#76 =( LENGTH_UNIT ( ) NAMED_UNIT ( * ) SI_UNIT ( .MILLI., .METRE. ) );
#77 = CLOSED_SHELL ( 'NONE', ( #17, #218, #103, #8, #124 ) ) ;
#78 = CARTESIAN_POINT ( 'NONE',  ( 2.663398154291550553E-14, -9.341943169568405838E-16, 7.628275496308511094 ) ) ;
#79 = PERSON_AND_ORGANIZATION ( #162, #222 ) ;
#80 = EDGE_CURVE ( 'NONE', #42, #42, #3, .T. ) ;
#81 = CALENDAR_DATE ( 2021, 8, 10 ) ;
#82 = CALENDAR_DATE ( 2021, 8, 10 ) ;
#83 = APPROVAL_STATUS ( 'not_yet_approved' ) ;
#84 = AXIS2_PLACEMENT_3D ( 'NONE', #105, #170, #223 ) ;
#85 = CC_DESIGN_PERSON_AND_ORGANIZATION_ASSIGNMENT ( #49, #219, ( #22 ) ) ;
#86 = EDGE_LOOP ( 'NONE', ( #2 ) ) ;
#87 = LOCAL_TIME ( 7, 54, 3.000000000000000000, #15 ) ;
#88 = PLANE ( 'NONE',  #217 ) ;
#89 = EDGE_LOOP ( 'NONE', ( #69 ) ) ;
#90 = ORIENTED_EDGE ( 'NONE', *, *, #127, .F. ) ;
#91 = FACE_OUTER_BOUND ( 'NONE', #126, .T. ) ;
#92 = CIRCLE ( 'NONE', #196, 0.7499999999999998890 ) ;
#93 = DIRECTION ( 'NONE',  ( -4.327932459297171570E-31, -1.000000000000000000, -1.218204688185963514E-16 ) ) ;
#94 = DESIGN_CONTEXT ( 'detailed design', #11, 'design' ) ;
#95 = CIRCLE ( 'NONE', #84, 0.6500000000000000222 ) ;
#96 = CARTESIAN_POINT ( 'NONE',  ( 2.663398154291550553E-14, -9.341943169568405838E-16, 7.628275496308511094 ) ) ;
#97 = SHAPE_DEFINITION_REPRESENTATION ( #125, #44 ) ;
#98 = PRODUCT_DEFINITION ( 'UNKNOWN', '', #22, #94 ) ;
#99 = PERSON_AND_ORGANIZATION ( #162, #222 ) ;
#100 = DATE_AND_TIME ( #181, #51 ) ;
#101 = MECHANICAL_CONTEXT ( 'NONE', #197, 'mechanical' ) ;
#102 = APPROVAL_ROLE ( '' ) ;
#103 = ADVANCED_FACE ( 'NONE', ( #25, #212 ), #45, .T. ) ;
#104 = CC_DESIGN_APPROVAL ( #48, ( #22 ) ) ;
#105 = CARTESIAN_POINT ( 'NONE',  ( 1.047444401652940007E-13, -3.673940397442059178E-15, 30.00000000000000000 ) ) ;
#106 = EDGE_LOOP ( 'NONE', ( #23 ) ) ;
#107 = EDGE_LOOP ( 'NONE', ( #53 ) ) ;
#108 = EDGE_LOOP ( 'NONE', ( #174 ) ) ;
#109 = DIRECTION ( 'NONE',  ( 3.491481338843133355E-15, -1.224646799147353207E-16, 1.000000000000000000 ) ) ;
#110 = MANIFOLD_SOLID_BREP ( 'Corps-Déplacer/Copier1[1]', #77 ) ;
#111 = DIRECTION ( 'NONE',  ( 4.327932459297171570E-31, 1.000000000000000000, 1.218204688185963514E-16 ) ) ;
#112 = CC_DESIGN_DATE_AND_TIME_ASSIGNMENT ( #34, #169, ( #98 ) ) ;
#113 = CARTESIAN_POINT ( 'NONE',  ( 1.047444401652940007E-13, 0.6499999999999962474, 30.00000000000000000 ) ) ;
#114 = AXIS2_PLACEMENT_3D ( 'NONE', #202, #155, #141 ) ;
#115 = DIRECTION ( 'NONE',  ( 0.0000000000000000000, 1.000000000000000000, 0.0000000000000000000 ) ) ;
#116 = CARTESIAN_POINT ( 'NONE',  ( 0.0000000000000000000, 0.0000000000000000000, 0.0000000000000000000 ) ) ;
#117 = PERSON_AND_ORGANIZATION_ROLE ( 'classification_officer' ) ;
#118 = LOCAL_TIME ( 7, 54, 3.000000000000000000, #165 ) ;
#119 = AXIS2_PLACEMENT_3D ( 'NONE', #158, #74, #207 ) ;
#120 = COORDINATED_UNIVERSAL_TIME_OFFSET ( 1, 0, .AHEAD. ) ;
#121 = CC_DESIGN_DATE_AND_TIME_ASSIGNMENT ( #62, #168, ( #198 ) ) ;
#122 = APPLICATION_PROTOCOL_DEFINITION ( 'international standard', 'config_control_design', 1994, #11 ) ;
#123 = AXIS2_PLACEMENT_3D ( 'NONE', #30, #178, #145 ) ;
#124 = ADVANCED_FACE ( 'NONE', ( #91 ), #75, .F. ) ;
#125 = PRODUCT_DEFINITION_SHAPE ( 'NONE', 'NONE',  #98 ) ;
#126 = EDGE_LOOP ( 'NONE', ( #55 ) ) ;
#127 = EDGE_CURVE ( 'NONE', #192, #192, #92, .T. ) ;
#128 = ORIENTED_EDGE ( 'NONE', *, *, #80, .T. ) ;
#129 = CYLINDRICAL_SURFACE ( 'NONE', #123, 0.4449999999999994515 ) ;
#130 = VERTEX_POINT ( 'NONE', #189 ) ;
#131 = CONICAL_SURFACE ( 'NONE', #65, 0.4449999999999987299, 1.047197551196592746 ) ;
#132 = CC_DESIGN_SECURITY_CLASSIFICATION ( #198, ( #22 ) ) ;
#133 = DIRECTION ( 'NONE',  ( -3.491481338843133355E-15, 1.224646799147353207E-16, -1.000000000000000000 ) ) ;
#134 = EDGE_CURVE ( 'NONE', #27, #27, #140, .T. ) ;
#135 = DIRECTION ( 'NONE',  ( 4.275831445896959482E-31, 1.000000000000000000, 1.224646799147353454E-16 ) ) ;
#136 = PERSON_AND_ORGANIZATION_ROLE ( 'creator' ) ;
#137 = PERSON_AND_ORGANIZATION ( #162, #222 ) ;
#138 = EDGE_CURVE ( 'NONE', #130, #130, #177, .T. ) ;
#139 = DIRECTION ( 'NONE',  ( 3.491481338843133355E-15, -1.224646799147353207E-16, 1.000000000000000000 ) ) ;
#140 = CIRCLE ( 'NONE', #209, 0.4449999999999987299 ) ;
#141 = DIRECTION ( 'NONE',  ( 0.0000000000000000000, 1.000000000000000000, 0.0000000000000000000 ) ) ;
#142 = ORIENTED_EDGE ( 'NONE', *, *, #159, .F. ) ;
#143 = EDGE_LOOP ( 'NONE', ( #173 ) ) ;
#144 = DIRECTION ( 'NONE',  ( -3.491481338843133355E-15, 1.224646799147353207E-16, -1.000000000000000000 ) ) ;
#145 = DIRECTION ( 'NONE',  ( 4.275831445896958607E-31, 1.000000000000000000, 1.224646799147352961E-16 ) ) ;
#146 = APPROVAL_PERSON_ORGANIZATION ( #66, #48, #102 ) ;
#147 = VERTEX_POINT ( 'NONE', #113 ) ;
#148 = DIRECTION ( 'NONE',  ( -3.491481338843133355E-15, 1.224646799147353207E-16, -1.000000000000000000 ) ) ;
#149 = APPROVAL ( #83, 'UNSPECIFIED' ) ;
#150 = APPROVAL_STATUS ( 'not_yet_approved' ) ;
#151 = DIRECTION ( 'NONE',  ( 1.000000000000000000, 0.0000000000000000000, 0.0000000000000000000 ) ) ;
#152 = AXIS2_PLACEMENT_3D ( 'NONE', #5, #133, #135 ) ;
#153 = APPROVAL_DATE_TIME ( #194, #48 ) ;
#154 = DIRECTION ( 'NONE',  ( 0.0000000000000000000, 1.000000000000000000, 0.0000000000000000000 ) ) ;
#155 = DIRECTION ( 'NONE',  ( -3.491481338843133355E-15, 1.224646799147353207E-16, -1.000000000000000000 ) ) ;
#156 = DIRECTION ( 'NONE',  ( -4.275831445896958607E-31, -1.000000000000000000, -1.224646799147353207E-16 ) ) ;
#157 = EDGE_LOOP ( 'NONE', ( #128 ) ) ;
#158 = CARTESIAN_POINT ( 'NONE',  ( 2.478951750578624367E-14, -8.694992273946207746E-16, 7.099999999999999645 ) ) ;
#159 = EDGE_CURVE ( 'NONE', #176, #176, #201, .T. ) ;
#160 = DIRECTION ( 'NONE',  ( -3.491481338843133355E-15, 1.224646799147353207E-16, -1.000000000000000000 ) ) ;
#161 =( NAMED_UNIT ( * ) PLANE_ANGLE_UNIT ( ) SI_UNIT ( $, .RADIAN. ) );
#162 = PERSON ( 'UNSPECIFIED', 'UNSPECIFIED', 'UNSPECIFIED', ('UNSPECIFIED'), ('UNSPECIFIED'), ('UNSPECIFIED') ) ;
#163 = FACE_OUTER_BOUND ( 'NONE', #108, .T. ) ;
#164 = PERSON_AND_ORGANIZATION ( #162, #222 ) ;
#165 = COORDINATED_UNIVERSAL_TIME_OFFSET ( 1, 0, .AHEAD. ) ;
#166 = ADVANCED_FACE ( 'NONE', ( #61, #56 ), #129, .T. ) ;
#167 = APPROVAL_DATE_TIME ( #100, #149 ) ;
#168 = DATE_TIME_ROLE ( 'classification_date' ) ;
#169 = DATE_TIME_ROLE ( 'creation_date' ) ;
#170 = DIRECTION ( 'NONE',  ( -3.491481338843133355E-15, 1.224646799147353207E-16, -1.000000000000000000 ) ) ;
#171 = ORIENTED_EDGE ( 'NONE', *, *, #127, .T. ) ;
#172 = AXIS2_PLACEMENT_3D ( 'NONE', #36, #139, #156 ) ;
#173 = ORIENTED_EDGE ( 'NONE', *, *, #138, .F. ) ;
#174 = ORIENTED_EDGE ( 'NONE', *, *, #134, .T. ) ;
#175 = CARTESIAN_POINT ( 'NONE',  ( 1.043952920314096810E-13, 0.7499999999999962252, 29.89999999999999858 ) ) ;
#176 = VERTEX_POINT ( 'NONE', #29 ) ;
#177 = CIRCLE ( 'NONE', #119, 0.4450000000000000622 ) ;
#178 = DIRECTION ( 'NONE',  ( -3.491481338843133355E-15, 1.224646799147353207E-16, -1.000000000000000000 ) ) ;
#179 = PERSON_AND_ORGANIZATION_ROLE ( 'design_owner' ) ;
#180 = ADVANCED_FACE ( 'NONE', ( #163 ), #131, .T. ) ;
#181 = CALENDAR_DATE ( 2021, 8, 10 ) ;
#182 = CALENDAR_DATE ( 2021, 8, 10 ) ;
#183 = CC_DESIGN_PERSON_AND_ORGANIZATION_ASSIGNMENT ( #137, #179, ( #20 ) ) ;
#184 = AXIS2_PLACEMENT_3D ( 'NONE', #21, #41, #154 ) ;
#185 = FACE_BOUND ( 'NONE', #86, .T. ) ;
#186 = FACE_OUTER_BOUND ( 'NONE', #73, .T. ) ;
#187 = FACE_OUTER_BOUND ( 'NONE', #106, .T. ) ;
#188 = CONICAL_SURFACE ( 'NONE', #58, 0.7499999999999973355, 0.5235987755982915992 ) ;
#189 = CARTESIAN_POINT ( 'NONE',  ( 2.478951750578624367E-14, 0.4449999999999992295, 7.099999999999999645 ) ) ;
#190 = CARTESIAN_POINT ( 'NONE',  ( 1.047444401652940007E-13, 4.874219293650981803E-33, 30.00000000000000000 ) ) ;
#191 = CARTESIAN_POINT ( 'NONE',  ( 8.970344224289864420E-16, -3.146373208217250948E-17, 0.2569208697893856641 ) ) ;
#192 = VERTEX_POINT ( 'NONE', #175 ) ;
#193 = PERSON_AND_ORGANIZATION_ROLE ( 'creator' ) ;
#194 = DATE_AND_TIME ( #199, #9 ) ;
#195 = SECURITY_CLASSIFICATION_LEVEL ( 'unclassified' ) ;
#196 = AXIS2_PLACEMENT_3D ( 'NONE', #206, #10, #115 ) ;
#197 = APPLICATION_CONTEXT ( 'configuration controlled 3d designs of mechanical parts and assemblies' ) ;
#198 = SECURITY_CLASSIFICATION ( '', '', #195 ) ;
#199 = CALENDAR_DATE ( 2021, 8, 10 ) ;
#200 = EDGE_LOOP ( 'NONE', ( #142 ) ) ;
#201 = CIRCLE ( 'NONE', #43, 0.7499999999999973355 ) ;
#202 = CARTESIAN_POINT ( 'NONE',  ( 2.478951750578624367E-14, -8.694992273946207746E-16, 7.099999999999999645 ) ) ;
#203 = FACE_OUTER_BOUND ( 'NONE', #107, .T. ) ;
#204 = EDGE_LOOP ( 'NONE', ( #171 ) ) ;
#205 = CC_DESIGN_APPROVAL ( #149, ( #198 ) ) ;
#206 = CARTESIAN_POINT ( 'NONE',  ( 1.043952920314096810E-13, -3.661693929450586610E-15, 29.89999999999999858 ) ) ;
#207 = DIRECTION ( 'NONE',  ( 0.0000000000000000000, 1.000000000000000000, 0.0000000000000000000 ) ) ;
#208 = CC_DESIGN_APPROVAL ( #72, ( #98 ) ) ;
#209 = AXIS2_PLACEMENT_3D ( 'NONE', #6, #160, #111 ) ;
#210 = CARTESIAN_POINT ( 'NONE',  ( 2.478951750578624367E-14, 0.4449999999999992295, 7.099999999999999645 ) ) ;
#211 = CC_DESIGN_PERSON_AND_ORGANIZATION_ASSIGNMENT ( #164, #117, ( #198 ) ) ;
#212 = FACE_OUTER_BOUND ( 'NONE', #204, .T. ) ;
#213 =( GEOMETRIC_REPRESENTATION_CONTEXT ( 3 ) GLOBAL_UNCERTAINTY_ASSIGNED_CONTEXT ( ( #1 ) ) GLOBAL_UNIT_ASSIGNED_CONTEXT ( ( #76, #161, #60 ) ) REPRESENTATION_CONTEXT ( 'NONE', 'WORKASPACE' ) );
#214 = APPROVAL_DATE_TIME ( #32, #72 ) ;
#215 = DIRECTION ( 'NONE',  ( 0.0000000000000000000, 0.0000000000000000000, 1.000000000000000000 ) ) ;
#216 = APPROVAL_ROLE ( '' ) ;
#217 = AXIS2_PLACEMENT_3D ( 'NONE', #19, #221, #71 ) ;
#218 = ADVANCED_FACE ( 'NONE', ( #7, #187 ), #188, .T. ) ;
#219 = PERSON_AND_ORGANIZATION_ROLE ( 'design_supplier' ) ;
#220 = PLANE ( 'NONE',  #172 ) ;
#221 = DIRECTION ( 'NONE',  ( 3.491481338843133355E-15, -1.224646799147353207E-16, 1.000000000000000000 ) ) ;
#222 = ORGANIZATION ( 'UNSPECIFIED', 'UNSPECIFIED', '' ) ;
#223 = DIRECTION ( 'NONE',  ( 0.0000000000000000000, 1.000000000000000000, 0.0000000000000000000 ) ) ;
ENDSEC;
END-ISO-10303-21;
