ISO-10303-21;
HEADER;
FILE_DESCRIPTION (( 'STEP AP203' ),
    '1' );
FILE_NAME ('56551.step',
    '2021-11-10T06:36:12',
    ( '' ),
    ( '' ),
    'SwSTEP 2.0',
    'SolidWorks 2019',
    '' );
FILE_SCHEMA (( 'CONFIG_CONTROL_DESIGN' ));
ENDSEC;

DATA;
#1 =( GEOMETRIC_REPRESENTATION_CONTEXT ( 3 ) GLOBAL_UNCERTAINTY_ASSIGNED_CONTEXT ( ( #195 ) ) GLOBAL_UNIT_ASSIGNED_CONTEXT ( ( #201, #54, #210 ) ) REPRESENTATION_CONTEXT ( 'NONE', 'WORKASPACE' ) );
#2 = EDGE_LOOP ( 'NONE', ( #42 ) ) ;
#3 = FACE_OUTER_BOUND ( 'NONE', #188, .T. ) ;
#4 = ORIENTED_EDGE ( 'NONE', *, *, #133, .T. ) ;
#5 = VERTEX_POINT ( 'NONE', #207 ) ;
#6 = AXIS2_PLACEMENT_3D ( 'NONE', #137, #169, #85 ) ;
#7 = CIRCLE ( 'NONE', #93, 0.2000000000000000944 ) ;
#8 = EDGE_LOOP ( 'NONE', ( #98 ) ) ;
#9 = FACE_OUTER_BOUND ( 'NONE', #230, .T. ) ;
#10 = EDGE_CURVE ( 'NONE', #231, #231, #170, .T. ) ;
#11 = CALENDAR_DATE ( 2021, 10, 11 ) ;
#12 = CARTESIAN_POINT ( 'NONE',  ( 1.326762908760390423E-13, -4.653657836759941941E-15, 38.00000000000000000 ) ) ;
#13 = MECHANICAL_CONTEXT ( 'NONE', #79, 'mechanical' ) ;
#14 = DATE_AND_TIME ( #11, #73 ) ;
#15 = CIRCLE ( 'NONE', #123, 0.1999999999999998723 ) ;
#16 = CONICAL_SURFACE ( 'NONE', #30, 1.499999999999996225, 0.2617993877991429130 ) ;
#17 = PERSON_AND_ORGANIZATION ( #223, #179 ) ;
#18 = CC_DESIGN_DATE_AND_TIME_ASSIGNMENT ( #14, #67, ( #239 ) ) ;
#19 = CYLINDRICAL_SURFACE ( 'NONE', #6, 0.1999999999999999833 ) ;
#20 = EDGE_LOOP ( 'NONE', ( #153 ) ) ;
#21 = FACE_OUTER_BOUND ( 'NONE', #211, .T. ) ;
#22 = EDGE_LOOP ( 'NONE', ( #60 ) ) ;
#23 = CARTESIAN_POINT ( 'NONE',  ( 0.2681483474218633312, 0.0000000000000000000, 0.9176380902050271793 ) ) ;
#24 = PRODUCT_DEFINITION ( 'UNKNOWN', '', #164, #68 ) ;
#25 = DIRECTION ( 'NONE',  ( 1.000000000000000000, 0.0000000000000000000, -3.469446951953622866E-15 ) ) ;
#26 = VERTEX_POINT ( 'NONE', #167 ) ;
#27 = APPROVAL_PERSON_ORGANIZATION ( #35, #234, #156 ) ;
#28 = AXIS2_PLACEMENT_3D ( 'NONE', #12, #125, #141 ) ;
#29 = CARTESIAN_POINT ( 'NONE',  ( 1.925541848792812102E-14, 0.0000000000000000000, 5.514971045014436690 ) ) ;
#30 = AXIS2_PLACEMENT_3D ( 'NONE', #29, #171, #25 ) ;
#31 = CARTESIAN_POINT ( 'NONE',  ( 1.396592535537251764E-15, 0.0000000000000000000, 0.3999999999999995226 ) ) ;
#32 = PLANE ( 'NONE',  #132 ) ;
#33 = DIRECTION ( 'NONE',  ( -4.275831445896958607E-31, -1.000000000000000000, -1.224646799147353207E-16 ) ) ;
#34 = CC_DESIGN_APPROVAL ( #108, ( #239 ) ) ;
#35 = PERSON_AND_ORGANIZATION ( #223, #179 ) ;
#36 = APPROVAL_DATE_TIME ( #199, #240 ) ;
#37 = CC_DESIGN_PERSON_AND_ORGANIZATION_ASSIGNMENT ( #55, #140, ( #163 ) ) ;
#38 = DIRECTION ( 'NONE',  ( 1.000000000000000000, 0.0000000000000000000, -3.491481338843133750E-15 ) ) ;
#39 = AXIS2_PLACEMENT_3D ( 'NONE', #31, #212, #104 ) ;
#40 = FACE_OUTER_BOUND ( 'NONE', #84, .T. ) ;
#41 = CC_DESIGN_PERSON_AND_ORGANIZATION_ASSIGNMENT ( #17, #196, ( #164 ) ) ;
#42 = ORIENTED_EDGE ( 'NONE', *, *, #45, .F. ) ;
#43 = EDGE_LOOP ( 'NONE', ( #185 ) ) ;
#44 = VERTEX_POINT ( 'NONE', #81 ) ;
#45 = EDGE_CURVE ( 'NONE', #26, #26, #181, .T. ) ;
#46 = ORIENTED_EDGE ( 'NONE', *, *, #133, .F. ) ;
#47 = VERTEX_POINT ( 'NONE', #120 ) ;
#48 = CARTESIAN_POINT ( 'NONE',  ( 1.316288464743861212E-13, -4.616918432785521081E-15, 37.69999999999999574 ) ) ;
#49 = AXIS2_PLACEMENT_3D ( 'NONE', #106, #218, #129 ) ;
#50 = CC_DESIGN_PERSON_AND_ORGANIZATION_ASSIGNMENT ( #159, #175, ( #239 ) ) ;
#51 = FACE_BOUND ( 'NONE', #101, .T. ) ;
#52 = APPLICATION_CONTEXT ( 'configuration controlled 3d designs of mechanical parts and assemblies' ) ;
#53 = APPROVAL_STATUS ( 'not_yet_approved' ) ;
#54 =( NAMED_UNIT ( * ) PLANE_ANGLE_UNIT ( ) SI_UNIT ( $, .RADIAN. ) );
#55 = PERSON_AND_ORGANIZATION ( #223, #179 ) ;
#56 = ADVANCED_FACE ( 'NONE', ( #77, #121 ), #16, .T. ) ;
#57 = CIRCLE ( 'NONE', #91, 1.199999999999998845 ) ;
#58 = CARTESIAN_POINT ( 'NONE',  ( 1.925541848792812102E-14, 0.0000000000000000000, 5.514971045014436690 ) ) ;
#59 = CC_DESIGN_PERSON_AND_ORGANIZATION_ASSIGNMENT ( #220, #128, ( #164 ) ) ;
#60 = ORIENTED_EDGE ( 'NONE', *, *, #172, .F. ) ;
#61 = CC_DESIGN_APPROVAL ( #240, ( #164 ) ) ;
#62 = ORIENTED_EDGE ( 'NONE', *, *, #45, .T. ) ;
#63 = EDGE_LOOP ( 'NONE', ( #46 ) ) ;
#64 = CARTESIAN_POINT ( 'NONE',  ( 0.2000000000000015099, 0.0000000000000000000, 0.3999999999999986344 ) ) ;
#65 = LOCAL_TIME ( 7, 36, 12.00000000000000000, #145 ) ;
#66 = DIRECTION ( 'NONE',  ( 3.491481338843133355E-15, -1.224646799147353207E-16, 1.000000000000000000 ) ) ;
#67 = DATE_TIME_ROLE ( 'classification_date' ) ;
#68 = DESIGN_CONTEXT ( 'detailed design', #52, 'design' ) ;
#69 = DIRECTION ( 'NONE',  ( -3.491481338843133355E-15, 1.224646799147353207E-16, -1.000000000000000000 ) ) ;
#70 = EDGE_CURVE ( 'NONE', #5, #5, #7, .T. ) ;
#71 = CALENDAR_DATE ( 2021, 10, 11 ) ;
#72 = CALENDAR_DATE ( 2021, 10, 11 ) ;
#73 = LOCAL_TIME ( 7, 36, 12.00000000000000000, #144 ) ;
#74 = PLANE ( 'NONE',  #149 ) ;
#75 = CC_DESIGN_APPROVAL ( #234, ( #24 ) ) ;
#76 = CONICAL_SURFACE ( 'NONE', #28, 1.199999999999998845, 0.7853981633974450594 ) ;
#77 = FACE_BOUND ( 'NONE', #103, .T. ) ;
#78 = EDGE_CURVE ( 'NONE', #44, #44, #150, .T. ) ;
#79 = APPLICATION_CONTEXT ( 'configuration controlled 3d designs of mechanical parts and assemblies' ) ;
#80 = EDGE_LOOP ( 'NONE', ( #154 ) ) ;
#81 = CARTESIAN_POINT ( 'NONE',  ( 1.500000000000015321, 0.0000000000000000000, 5.514971045014432249 ) ) ;
#82 = AXIS2_PLACEMENT_3D ( 'NONE', #217, #214, #194 ) ;
#83 = CARTESIAN_POINT ( 'NONE',  ( 1.396592535537252356E-15, -5.782411586589370951E-17, 0.3999999999999996891 ) ) ;
#84 = EDGE_LOOP ( 'NONE', ( #168 ) ) ;
#85 = DIRECTION ( 'NONE',  ( 1.000000000000000000, 0.0000000000000000000, -3.491481338843133750E-15 ) ) ;
#86 = APPROVAL_STATUS ( 'not_yet_approved' ) ;
#87 = CARTESIAN_POINT ( 'NONE',  ( 0.0000000000000000000, 0.0000000000000000000, 0.0000000000000000000 ) ) ;
#88 = COORDINATED_UNIVERSAL_TIME_OFFSET ( 1, 0, .AHEAD. ) ;
#89 = APPROVAL_DATE_TIME ( #233, #234 ) ;
#90 = APPROVAL_STATUS ( 'not_yet_approved' ) ;
#91 = AXIS2_PLACEMENT_3D ( 'NONE', #105, #139, #222 ) ;
#92 = ADVANCED_FACE ( 'NONE', ( #21, #3 ), #235, .T. ) ;
#93 = AXIS2_PLACEMENT_3D ( 'NONE', #204, #151, #226 ) ;
#94 = PERSON_AND_ORGANIZATION ( #223, #179 ) ;
#95 = CARTESIAN_POINT ( 'NONE',  ( 1.326762908760390423E-13, 8.998558695971069014E-33, 38.00000000000000000 ) ) ;
#96 = CC_DESIGN_SECURITY_CLASSIFICATION ( #239, ( #164 ) ) ;
#97 = FACE_OUTER_BOUND ( 'NONE', #80, .T. ) ;
#98 = ORIENTED_EDGE ( 'NONE', *, *, #70, .T. ) ;
#99 = ADVANCED_FACE ( 'NONE', ( #232 ), #32, .F. ) ;
#100 = DIRECTION ( 'NONE',  ( 3.491481338843133355E-15, -0.0000000000000000000, 1.000000000000000000 ) ) ;
#101 = EDGE_LOOP ( 'NONE', ( #166 ) ) ;
#102 = MANIFOLD_SOLID_BREP ( 'Corps-Déplacer/Copier1[2]', #116 ) ;
#103 = EDGE_LOOP ( 'NONE', ( #4 ) ) ;
#104 = DIRECTION ( 'NONE',  ( 1.000000000000000000, 0.0000000000000000000, -3.491481338843133750E-15 ) ) ;
#105 = CARTESIAN_POINT ( 'NONE',  ( 1.326762908760390423E-13, -4.653657836759941941E-15, 38.00000000000000000 ) ) ;
#106 = CARTESIAN_POINT ( 'NONE',  ( 0.0000000000000000000, 0.0000000000000000000, 0.0000000000000000000 ) ) ;
#107 = PERSON_AND_ORGANIZATION ( #223, #179 ) ;
#108 = APPROVAL ( #90, 'UNSPECIFIED' ) ;
#109 = APPROVAL_PERSON_ORGANIZATION ( #236, #240, #198 ) ;
#110 = APPLICATION_PROTOCOL_DEFINITION ( 'international standard', 'config_control_design', 1994, #79 ) ;
#111 = AXIS2_PLACEMENT_3D ( 'NONE', #48, #208, #189 ) ;
#112 = ADVANCED_FACE ( 'NONE', ( #176, #51 ), #76, .T. ) ;
#113 = MANIFOLD_SOLID_BREP ( 'Corps-Déplacer/Copier1[1]', #193 ) ;
#114 = PLANE ( 'NONE',  #219 ) ;
#115 = TOROIDAL_SURFACE ( 'NONE', #39, 2.200000000000000178, 2.000000000000000000 ) ;
#116 = CLOSED_SHELL ( 'NONE', ( #243, #216, #205 ) ) ;
#117 = DIRECTION ( 'NONE',  ( -3.491481338843133355E-15, 1.224646799147353207E-16, -1.000000000000000000 ) ) ;
#118 = PRODUCT_RELATED_PRODUCT_CATEGORY ( 'detail', '', ( #163 ) ) ;
#119 = ORIENTED_EDGE ( 'NONE', *, *, #78, .T. ) ;
#120 = CARTESIAN_POINT ( 'NONE',  ( 0.1999999999999998723, 0.0000000000000000000, -6.982962677686262766E-16 ) ) ;
#121 = FACE_OUTER_BOUND ( 'NONE', #165, .T. ) ;
#122 = FACE_OUTER_BOUND ( 'NONE', #8, .T. ) ;
#123 = AXIS2_PLACEMENT_3D ( 'NONE', #241, #148, #38 ) ;
#124 = AXIS2_PLACEMENT_3D ( 'NONE', #227, #100, #136 ) ;
#125 = DIRECTION ( 'NONE',  ( -3.491481338843133355E-15, 1.224646799147353207E-16, -1.000000000000000000 ) ) ;
#126 = APPLICATION_PROTOCOL_DEFINITION ( 'international standard', 'config_control_design', 1994, #52 ) ;
#127 = CALENDAR_DATE ( 2021, 10, 11 ) ;
#128 = PERSON_AND_ORGANIZATION_ROLE ( 'creator' ) ;
#129 = DIRECTION ( 'NONE',  ( 1.000000000000000000, 0.0000000000000000000, 0.0000000000000000000 ) ) ;
#130 = PRODUCT_DEFINITION_SHAPE ( 'NONE', 'NONE',  #24 ) ;
#131 = DIRECTION ( 'NONE',  ( -4.275831445896958607E-31, -1.000000000000000000, -1.224646799147353207E-16 ) ) ;
#132 = AXIS2_PLACEMENT_3D ( 'NONE', #174, #66, #33 ) ;
#133 = EDGE_CURVE ( 'NONE', #152, #152, #190, .T. ) ;
#134 = DIRECTION ( 'NONE',  ( 3.491481338843133355E-15, -0.0000000000000000000, 1.000000000000000000 ) ) ;
#135 = ADVANCED_BREP_SHAPE_REPRESENTATION ( '56551', ( #113, #102, #49 ), #1 ) ;
#136 = DIRECTION ( 'NONE',  ( 1.000000000000000000, 0.0000000000000000000, -3.523657060577887833E-15 ) ) ;
#137 = CARTESIAN_POINT ( 'NONE',  ( -1.786038389295302186E-30, 0.0000000000000000000, -5.115417256925931626E-16 ) ) ;
#138 = EDGE_CURVE ( 'NONE', #228, #228, #57, .T. ) ;
#139 = DIRECTION ( 'NONE',  ( -3.491481338843133355E-15, 1.224646799147353207E-16, -1.000000000000000000 ) ) ;
#140 = PERSON_AND_ORGANIZATION_ROLE ( 'design_owner' ) ;
#141 = DIRECTION ( 'NONE',  ( 0.0000000000000000000, 1.000000000000000000, 0.0000000000000000000 ) ) ;
#142 = DATE_TIME_ROLE ( 'creation_date' ) ;
#143 = AXIS2_PLACEMENT_3D ( 'NONE', #83, #229, #155 ) ;
#144 = COORDINATED_UNIVERSAL_TIME_OFFSET ( 1, 0, .AHEAD. ) ;
#145 = COORDINATED_UNIVERSAL_TIME_OFFSET ( 1, 0, .AHEAD. ) ;
#146 = CC_DESIGN_DATE_AND_TIME_ASSIGNMENT ( #162, #142, ( #24 ) ) ;
#147 = DIRECTION ( 'NONE',  ( 3.491481338843133355E-15, -1.224646799147353207E-16, 1.000000000000000000 ) ) ;
#148 = DIRECTION ( 'NONE',  ( 3.491481338843133355E-15, -0.0000000000000000000, 1.000000000000000000 ) ) ;
#149 = AXIS2_PLACEMENT_3D ( 'NONE', #202, #147, #131 ) ;
#150 = CIRCLE ( 'NONE', #203, 1.499999999999996225 ) ;
#151 = DIRECTION ( 'NONE',  ( 3.491481338843133355E-15, -0.0000000000000000000, 1.000000000000000000 ) ) ;
#152 = VERTEX_POINT ( 'NONE', #23 ) ;
#153 = ORIENTED_EDGE ( 'NONE', *, *, #10, .F. ) ;
#154 = ORIENTED_EDGE ( 'NONE', *, *, #138, .F. ) ;
#155 = DIRECTION ( 'NONE',  ( -4.275831445896958607E-31, -1.000000000000000000, -1.224646799147353207E-16 ) ) ;
#156 = APPROVAL_ROLE ( '' ) ;
#157 = DIRECTION ( 'NONE',  ( 4.275831445896958607E-31, 1.000000000000000000, 1.224646799147353207E-16 ) ) ;
#158 = COORDINATED_UNIVERSAL_TIME_OFFSET ( 1, 0, .AHEAD. ) ;
#159 = PERSON_AND_ORGANIZATION ( #223, #179 ) ;
#160 = APPROVAL_ROLE ( '' ) ;
#161 = LOCAL_TIME ( 7, 36, 12.00000000000000000, #238 ) ;
#162 = DATE_AND_TIME ( #180, #213 ) ;
#163 = PRODUCT ( '56551', '56551', '', ( #13 ) ) ;
#164 = PRODUCT_DEFINITION_FORMATION_WITH_SPECIFIED_SOURCE ( 'ANY', '', #163, .NOT_KNOWN. ) ;
#165 = EDGE_LOOP ( 'NONE', ( #206 ) ) ;
#166 = ORIENTED_EDGE ( 'NONE', *, *, #138, .T. ) ;
#167 = CARTESIAN_POINT ( 'NONE',  ( 1.316288464743861212E-13, 1.499999999999994005, 37.69999999999999574 ) ) ;
#168 = ORIENTED_EDGE ( 'NONE', *, *, #172, .T. ) ;
#169 = DIRECTION ( 'NONE',  ( 3.491481338843133355E-15, -0.0000000000000000000, 1.000000000000000000 ) ) ;
#170 = CIRCLE ( 'NONE', #124, 0.2000000000000000944 ) ;
#171 = DIRECTION ( 'NONE',  ( 3.491481338843133355E-15, -0.0000000000000000000, 1.000000000000000000 ) ) ;
#172 = EDGE_CURVE ( 'NONE', #47, #47, #15, .T. ) ;
#173 = PLANE ( 'NONE',  #143 ) ;
#174 = CARTESIAN_POINT ( 'NONE',  ( 1.396592535537252356E-15, -5.782411586589370951E-17, 0.3999999999999996891 ) ) ;
#175 = PERSON_AND_ORGANIZATION_ROLE ( 'classification_officer' ) ;
#176 = FACE_OUTER_BOUND ( 'NONE', #2, .T. ) ;
#177 = PERSON_AND_ORGANIZATION_ROLE ( 'creator' ) ;
#178 = SECURITY_CLASSIFICATION_LEVEL ( 'unclassified' ) ;
#179 = ORGANIZATION ( 'UNSPECIFIED', 'UNSPECIFIED', '' ) ;
#180 = CALENDAR_DATE ( 2021, 10, 11 ) ;
#181 = CIRCLE ( 'NONE', #111, 1.499999999999998446 ) ;
#182 = SHAPE_DEFINITION_REPRESENTATION ( #130, #135 ) ;
#183 = ADVANCED_FACE ( 'NONE', ( #97 ), #114, .F. ) ;
#184 = FACE_OUTER_BOUND ( 'NONE', #43, .T. ) ;
#185 = ORIENTED_EDGE ( 'NONE', *, *, #70, .F. ) ;
#186 = DIRECTION ( 'NONE',  ( 1.000000000000000000, 0.0000000000000000000, -3.469446951953622866E-15 ) ) ;
#187 = CC_DESIGN_PERSON_AND_ORGANIZATION_ASSIGNMENT ( #94, #177, ( #24 ) ) ;
#188 = EDGE_LOOP ( 'NONE', ( #119 ) ) ;
#189 = DIRECTION ( 'NONE',  ( 0.0000000000000000000, 1.000000000000000000, 0.0000000000000000000 ) ) ;
#190 = CIRCLE ( 'NONE', #82, 0.2681483474218601115 ) ;
#191 = ORIENTED_EDGE ( 'NONE', *, *, #10, .T. ) ;
#192 = FACE_OUTER_BOUND ( 'NONE', #63, .T. ) ;
#193 = CLOSED_SHELL ( 'NONE', ( #92, #112, #183, #225, #56, #99 ) ) ;
#194 = DIRECTION ( 'NONE',  ( 1.000000000000000000, 0.0000000000000000000, -3.638963150877900123E-15 ) ) ;
#195 = UNCERTAINTY_MEASURE_WITH_UNIT (LENGTH_MEASURE( 1.000000000000000082E-05 ), #201, 'distance_accuracy_value', 'NONE');
#196 = PERSON_AND_ORGANIZATION_ROLE ( 'design_supplier' ) ;
#197 = APPROVAL_PERSON_ORGANIZATION ( #107, #108, #160 ) ;
#198 = APPROVAL_ROLE ( '' ) ;
#199 = DATE_AND_TIME ( #127, #65 ) ;
#200 = LOCAL_TIME ( 7, 36, 12.00000000000000000, #88 ) ;
#201 =( LENGTH_UNIT ( ) NAMED_UNIT ( * ) SI_UNIT ( .MILLI., .METRE. ) );
#202 = CARTESIAN_POINT ( 'NONE',  ( -6.413803915257457113E-31, 2.249659577954772199E-32, -1.836986451539393076E-16 ) ) ;
#203 = AXIS2_PLACEMENT_3D ( 'NONE', #58, #134, #186 ) ;
#204 = CARTESIAN_POINT ( 'NONE',  ( 1.396592535537250976E-15, 0.0000000000000000000, 0.3999999999999993006 ) ) ;
#205 = ADVANCED_FACE ( 'NONE', ( #242 ), #74, .F. ) ;
#206 = ORIENTED_EDGE ( 'NONE', *, *, #78, .F. ) ;
#207 = CARTESIAN_POINT ( 'NONE',  ( 0.2000000000000015099, 0.0000000000000000000, 0.3999999999999986344 ) ) ;
#208 = DIRECTION ( 'NONE',  ( -3.491481338843133355E-15, 1.224646799147353207E-16, -1.000000000000000000 ) ) ;
#209 = CARTESIAN_POINT ( 'NONE',  ( 1.326762908760390423E-13, 1.199999999999994182, 38.00000000000000000 ) ) ;
#210 =( NAMED_UNIT ( * ) SI_UNIT ( $, .STERADIAN. ) SOLID_ANGLE_UNIT ( ) );
#211 = EDGE_LOOP ( 'NONE', ( #62 ) ) ;
#212 = DIRECTION ( 'NONE',  ( 3.491481338843133355E-15, -0.0000000000000000000, 1.000000000000000000 ) ) ;
#213 = LOCAL_TIME ( 7, 36, 12.00000000000000000, #158 ) ;
#214 = DIRECTION ( 'NONE',  ( 3.491481338843133355E-15, -0.0000000000000000000, 1.000000000000000000 ) ) ;
#215 = APPROVAL_DATE_TIME ( #221, #108 ) ;
#216 = ADVANCED_FACE ( 'NONE', ( #40, #184 ), #19, .T. ) ;
#217 = CARTESIAN_POINT ( 'NONE',  ( 3.203916267762507751E-15, 0.0000000000000000000, 0.9176380902050281785 ) ) ;
#218 = DIRECTION ( 'NONE',  ( 0.0000000000000000000, 0.0000000000000000000, 1.000000000000000000 ) ) ;
#219 = AXIS2_PLACEMENT_3D ( 'NONE', #95, #117, #224 ) ;
#220 = PERSON_AND_ORGANIZATION ( #223, #179 ) ;
#221 = DATE_AND_TIME ( #72, #161 ) ;
#222 = DIRECTION ( 'NONE',  ( 0.0000000000000000000, 1.000000000000000000, 0.0000000000000000000 ) ) ;
#223 = PERSON ( 'UNSPECIFIED', 'UNSPECIFIED', 'UNSPECIFIED', ('UNSPECIFIED'), ('UNSPECIFIED'), ('UNSPECIFIED') ) ;
#224 = DIRECTION ( 'NONE',  ( 4.275831445896958607E-31, 1.000000000000000000, 1.224646799147353207E-16 ) ) ;
#225 = ADVANCED_FACE ( 'NONE', ( #9, #192 ), #115, .F. ) ;
#226 = DIRECTION ( 'NONE',  ( 1.000000000000000000, 0.0000000000000000000, -3.523657060577887833E-15 ) ) ;
#227 = CARTESIAN_POINT ( 'NONE',  ( 1.396592535537250976E-15, 0.0000000000000000000, 0.3999999999999993006 ) ) ;
#228 = VERTEX_POINT ( 'NONE', #209 ) ;
#229 = DIRECTION ( 'NONE',  ( 3.491481338843133355E-15, -1.224646799147353207E-16, 1.000000000000000000 ) ) ;
#230 = EDGE_LOOP ( 'NONE', ( #191 ) ) ;
#231 = VERTEX_POINT ( 'NONE', #64 ) ;
#232 = FACE_OUTER_BOUND ( 'NONE', #20, .T. ) ;
#233 = DATE_AND_TIME ( #71, #200 ) ;
#234 = APPROVAL ( #86, 'UNSPECIFIED' ) ;
#235 = CYLINDRICAL_SURFACE ( 'NONE', #237, 1.499999999999996225 ) ;
#236 = PERSON_AND_ORGANIZATION ( #223, #179 ) ;
#237 = AXIS2_PLACEMENT_3D ( 'NONE', #87, #69, #157 ) ;
#238 = COORDINATED_UNIVERSAL_TIME_OFFSET ( 1, 0, .AHEAD. ) ;
#239 = SECURITY_CLASSIFICATION ( '', '', #178 ) ;
#240 = APPROVAL ( #53, 'UNSPECIFIED' ) ;
#241 = CARTESIAN_POINT ( 'NONE',  ( 0.0000000000000000000, 0.0000000000000000000, 0.0000000000000000000 ) ) ;
#242 = FACE_OUTER_BOUND ( 'NONE', #22, .T. ) ;
#243 = ADVANCED_FACE ( 'NONE', ( #122 ), #173, .T. ) ;
ENDSEC;
END-ISO-10303-21;
