ISO-10303-21;
HEADER;
FILE_DESCRIPTION (( 'STEP AP203' ),
    '1' );
FILE_NAME ('56337.step',
    '2021-11-12T08:05:47',
    ( '' ),
    ( '' ),
    'SwSTEP 2.0',
    'SolidWorks 2019',
    '' );
FILE_SCHEMA (( 'CONFIG_CONTROL_DESIGN' ));
ENDSEC;

DATA;
#1 = AXIS2_PLACEMENT_3D ( 'NONE', #169, #46, #67 ) ;
#2 = CARTESIAN_POINT ( 'NONE',  ( 6.982962677686266711E-16, 3.000000000000000000, 0.2000000000000000111 ) ) ;
#3 = APPROVAL ( #144, 'UNSPECIFIED' ) ;
#4 = EDGE_LOOP ( 'NONE', ( #17 ) ) ;
#5 = DATE_TIME_ROLE ( 'creation_date' ) ;
#6 = LOCAL_TIME ( 9, 5, 47.00000000000000000, #159 ) ;
#7 = DATE_AND_TIME ( #119, #6 ) ;
#8 = CARTESIAN_POINT ( 'NONE',  ( 0.0000000000000000000, 0.0000000000000000000, 0.0000000000000000000 ) ) ;
#9 = ORGANIZATION ( 'UNSPECIFIED', 'UNSPECIFIED', '' ) ;
#10 = DIRECTION ( 'NONE',  ( 4.275831445896958607E-31, 1.000000000000000000, 1.224646799147353207E-16 ) ) ;
#11 = PERSON_AND_ORGANIZATION ( #203, #9 ) ;
#12 = CARTESIAN_POINT ( 'NONE',  ( 0.0000000000000000000, 0.0000000000000000000, 0.0000000000000000000 ) ) ;
#13 = CARTESIAN_POINT ( 'NONE',  ( 2.618611004132349638E-13, 1.718285839091886675E-30, 74.99999999999998579 ) ) ;
#14 = CARTESIAN_POINT ( 'NONE',  ( 2.601153597438134034E-13, -9.123618653647781159E-15, 74.50000000000000000 ) ) ;
#15 = AXIS2_PLACEMENT_3D ( 'NONE', #112, #222, #84 ) ;
#16 = EDGE_LOOP ( 'NONE', ( #36 ) ) ;
#17 = ORIENTED_EDGE ( 'NONE', *, *, #223, .F. ) ;
#18 = CIRCLE ( 'NONE', #15, 3.000000000000000444 ) ;
#19 = ADVANCED_FACE ( 'NONE', ( #21, #160 ), #92, .T. ) ;
#20 = CC_DESIGN_APPROVAL ( #3, ( #85 ) ) ;
#21 = FACE_OUTER_BOUND ( 'NONE', #137, .T. ) ;
#22 = CC_DESIGN_PERSON_AND_ORGANIZATION_ASSIGNMENT ( #29, #201, ( #85 ) ) ;
#23 = FACE_OUTER_BOUND ( 'NONE', #100, .T. ) ;
#24 = CIRCLE ( 'NONE', #210, 3.000000000000000000 ) ;
#25 = DIRECTION ( 'NONE',  ( -3.491481338843133355E-15, 1.224646799147353207E-16, -1.000000000000000000 ) ) ;
#26 = EDGE_CURVE ( 'NONE', #69, #69, #90, .T. ) ;
#27 = DIRECTION ( 'NONE',  ( 4.275831445896958607E-31, 1.000000000000000000, 1.224646799147353207E-16 ) ) ;
#28 = FACE_OUTER_BOUND ( 'NONE', #115, .T. ) ;
#29 = PERSON_AND_ORGANIZATION ( #203, #9 ) ;
#30 = DIRECTION ( 'NONE',  ( -4.275831445896958607E-31, -1.000000000000000000, -1.224646799147353207E-16 ) ) ;
#31 = AXIS2_PLACEMENT_3D ( 'NONE', #13, #184, #27 ) ;
#32 = LOCAL_TIME ( 9, 5, 47.00000000000000000, #62 ) ;
#33 = EDGE_CURVE ( 'NONE', #196, #196, #95, .T. ) ;
#34 = VERTEX_POINT ( 'NONE', #101 ) ;
#35 = ORIENTED_EDGE ( 'NONE', *, *, #172, .F. ) ;
#36 = ORIENTED_EDGE ( 'NONE', *, *, #185, .T. ) ;
#37 = AXIS2_PLACEMENT_3D ( 'NONE', #128, #216, #171 ) ;
#38 = UNCERTAINTY_MEASURE_WITH_UNIT (LENGTH_MEASURE( 1.000000000000000082E-05 ), #51, 'distance_accuracy_value', 'NONE');
#39 = CONICAL_SURFACE ( 'NONE', #1, 2.999999999999984013, 0.7853981633974415066 ) ;
#40 = ADVANCED_FACE ( 'NONE', ( #186 ), #132, .T. ) ;
#41 = PERSON_AND_ORGANIZATION ( #203, #9 ) ;
#42 = DIRECTION ( 'NONE',  ( -3.491481338843133355E-15, 1.224646799147353207E-16, -1.000000000000000000 ) ) ;
#43 = DATE_AND_TIME ( #127, #32 ) ;
#44 = SECURITY_CLASSIFICATION ( '', '', #147 ) ;
#45 = DIRECTION ( 'NONE',  ( -3.491481338843133355E-15, 1.224646799147353207E-16, -1.000000000000000000 ) ) ;
#46 = DIRECTION ( 'NONE',  ( -3.491481338843133355E-15, 1.224646799147353207E-16, -1.000000000000000000 ) ) ;
#47 = FACE_BOUND ( 'NONE', #56, .T. ) ;
#48 = CARTESIAN_POINT ( 'NONE',  ( -5.986164024255741874E-31, 2.099663695726600651E-32, -1.714505518806294391E-16 ) ) ;
#49 = EDGE_LOOP ( 'NONE', ( #175 ) ) ;
#50 = CC_DESIGN_SECURITY_CLASSIFICATION ( #44, ( #85 ) ) ;
#51 =( LENGTH_UNIT ( ) NAMED_UNIT ( * ) SI_UNIT ( .MILLI., .METRE. ) );
#52 = ORIENTED_EDGE ( 'NONE', *, *, #26, .F. ) ;
#53 = CC_DESIGN_PERSON_AND_ORGANIZATION_ASSIGNMENT ( #179, #141, ( #220 ) ) ;
#54 = CIRCLE ( 'NONE', #72, 2.799999999999999822 ) ;
#55 = DIRECTION ( 'NONE',  ( 1.000000000000000000, 0.0000000000000000000, 0.0000000000000000000 ) ) ;
#56 = EDGE_LOOP ( 'NONE', ( #197 ) ) ;
#57 = APPROVAL ( #149, 'UNSPECIFIED' ) ;
#58 = PRODUCT ( '56337', '56337', '', ( #199 ) ) ;
#59 = PERSON_AND_ORGANIZATION ( #203, #9 ) ;
#60 = PERSON_AND_ORGANIZATION ( #203, #9 ) ;
#61 = FACE_BOUND ( 'NONE', #209, .T. ) ;
#62 = COORDINATED_UNIVERSAL_TIME_OFFSET ( 1, 0, .AHEAD. ) ;
#63 = DIRECTION ( 'NONE',  ( -4.275831445896958607E-31, -1.000000000000000000, -1.224646799147353207E-16 ) ) ;
#64 = APPROVAL_ROLE ( '' ) ;
#65 = CONICAL_SURFACE ( 'NONE', #99, 2.799999999999999822, 0.7853981633974485010 ) ;
#66 = DIRECTION ( 'NONE',  ( 0.0000000000000000000, 1.000000000000000000, 0.0000000000000000000 ) ) ;
#67 = DIRECTION ( 'NONE',  ( 0.0000000000000000000, 1.000000000000000000, 0.0000000000000000000 ) ) ;
#68 = SHAPE_DEFINITION_REPRESENTATION ( #108, #177 ) ;
#69 = VERTEX_POINT ( 'NONE', #134 ) ;
#70 = AXIS2_PLACEMENT_3D ( 'NONE', #8, #78, #145 ) ;
#71 = ADVANCED_FACE ( 'NONE', ( #47, #126 ), #39, .T. ) ;
#72 = AXIS2_PLACEMENT_3D ( 'NONE', #204, #45, #96 ) ;
#73 = CARTESIAN_POINT ( 'NONE',  ( 6.982962677686266711E-14, 2.999999999999997780, 20.00000000000000000 ) ) ;
#74 = AXIS2_PLACEMENT_3D ( 'NONE', #113, #93, #63 ) ;
#75 = MANIFOLD_SOLID_BREP ( 'Corps-Déplacer/Copier1[1]', #79 ) ;
#76 = MANIFOLD_SOLID_BREP ( 'Corps-Déplacer/Copier1[2]', #164 ) ;
#77 = COORDINATED_UNIVERSAL_TIME_OFFSET ( 1, 0, .AHEAD. ) ;
#78 = DIRECTION ( 'NONE',  ( -3.491481338843133355E-15, 1.224646799147353207E-16, -1.000000000000000000 ) ) ;
#79 = CLOSED_SHELL ( 'NONE', ( #97, #161, #71, #89 ) ) ;
#80 = DIRECTION ( 'NONE',  ( -3.491481338843133355E-15, 1.224646799147353207E-16, -1.000000000000000000 ) ) ;
#81 = PLANE ( 'NONE',  #170 ) ;
#82 = DATE_AND_TIME ( #103, #129 ) ;
#83 = CARTESIAN_POINT ( 'NONE',  ( -1.197232804851148375E-30, 4.199327391453201302E-32, -3.429011037612588783E-16 ) ) ;
#84 = DIRECTION ( 'NONE',  ( 0.0000000000000000000, 1.000000000000000000, 0.0000000000000000000 ) ) ;
#85 = PRODUCT_DEFINITION_FORMATION_WITH_SPECIFIED_SOURCE ( 'ANY', '', #58, .NOT_KNOWN. ) ;
#86 = ORIENTED_EDGE ( 'NONE', *, *, #117, .F. ) ;
#87 = VERTEX_POINT ( 'NONE', #73 ) ;
#88 = EDGE_LOOP ( 'NONE', ( #136 ) ) ;
#89 = ADVANCED_FACE ( 'NONE', ( #28 ), #154, .F. ) ;
#90 = CIRCLE ( 'NONE', #124, 2.500000000000004441 ) ;
#91 = APPROVAL_ROLE ( '' ) ;
#92 = CYLINDRICAL_SURFACE ( 'NONE', #70, 3.000000000000000000 ) ;
#93 = DIRECTION ( 'NONE',  ( 3.491481338843133355E-15, -1.224646799147353207E-16, 1.000000000000000000 ) ) ;
#94 = ADVANCED_FACE ( 'NONE', ( #150 ), #81, .T. ) ;
#95 = CIRCLE ( 'NONE', #37, 3.000000000000000444 ) ;
#96 = DIRECTION ( 'NONE',  ( 4.275831445896958607E-31, 1.000000000000000000, 1.224646799147353207E-16 ) ) ;
#97 = ADVANCED_FACE ( 'NONE', ( #191 ), #98, .F. ) ;
#98 = PLANE ( 'NONE',  #74 ) ;
#99 = AXIS2_PLACEMENT_3D ( 'NONE', #83, #218, #30 ) ;
#100 = EDGE_LOOP ( 'NONE', ( #158 ) ) ;
#101 = CARTESIAN_POINT ( 'NONE',  ( 2.601153597438134034E-13, 2.999999999999975131, 74.50000000000000000 ) ) ;
#102 =( NAMED_UNIT ( * ) PLANE_ANGLE_UNIT ( ) SI_UNIT ( $, .RADIAN. ) );
#103 = CALENDAR_DATE ( 2021, 12, 11 ) ;
#104 = APPROVAL_STATUS ( 'not_yet_approved' ) ;
#105 = CALENDAR_DATE ( 2021, 12, 11 ) ;
#106 = EDGE_LOOP ( 'NONE', ( #212 ) ) ;
#107 = ORIENTED_EDGE ( 'NONE', *, *, #33, .T. ) ;
#108 = PRODUCT_DEFINITION_SHAPE ( 'NONE', 'NONE',  #220 ) ;
#109 = DIRECTION ( 'NONE',  ( 4.172848212839010723E-31, 1.000000000000000000, 1.264902534566421922E-16 ) ) ;
#110 = APPROVAL_PERSON_ORGANIZATION ( #139, #3, #211 ) ;
#111 = APPROVAL_DATE_TIME ( #82, #3 ) ;
#112 = CARTESIAN_POINT ( 'NONE',  ( 6.982962677686266711E-14, -2.449293598294706513E-15, 20.00000000000000000 ) ) ;
#113 = CARTESIAN_POINT ( 'NONE',  ( 6.982962677686266711E-14, 2.249639673992782854E-32, 20.00000000000000000 ) ) ;
#114 = LOCAL_TIME ( 9, 5, 47.00000000000000000, #130 ) ;
#115 = EDGE_LOOP ( 'NONE', ( #52 ) ) ;
#116 = CC_DESIGN_APPROVAL ( #190, ( #220 ) ) ;
#117 = EDGE_CURVE ( 'NONE', #157, #157, #54, .T. ) ;
#118 = PERSON_AND_ORGANIZATION ( #203, #9 ) ;
#119 = CALENDAR_DATE ( 2021, 12, 11 ) ;
#120 = PRODUCT_RELATED_PRODUCT_CATEGORY ( 'detail', '', ( #58 ) ) ;
#121 = PERSON_AND_ORGANIZATION_ROLE ( 'design_owner' ) ;
#122 = APPROVAL_DATE_TIME ( #7, #190 ) ;
#123 = DESIGN_CONTEXT ( 'detailed design', #181, 'design' ) ;
#124 = AXIS2_PLACEMENT_3D ( 'NONE', #206, #189, #66 ) ;
#125 = CC_DESIGN_PERSON_AND_ORGANIZATION_ASSIGNMENT ( #118, #121, ( #58 ) ) ;
#126 = FACE_OUTER_BOUND ( 'NONE', #176, .T. ) ;
#127 = CALENDAR_DATE ( 2021, 12, 11 ) ;
#128 = CARTESIAN_POINT ( 'NONE',  ( 6.982962677686266711E-14, -2.449293598294706513E-15, 20.00000000000000000 ) ) ;
#129 = LOCAL_TIME ( 9, 5, 47.00000000000000000, #198 ) ;
#130 = COORDINATED_UNIVERSAL_TIME_OFFSET ( 1, 0, .AHEAD. ) ;
#131 = FACE_OUTER_BOUND ( 'NONE', #49, .T. ) ;
#132 = PLANE ( 'NONE',  #182 ) ;
#133 = DATE_AND_TIME ( #168, #114 ) ;
#134 = CARTESIAN_POINT ( 'NONE',  ( 2.618611004132349638E-13, 2.499999999999995115, 74.99999999999998579 ) ) ;
#135 = CARTESIAN_POINT ( 'NONE',  ( 0.0000000000000000000, 2.799999999999999822, 0.0000000000000000000 ) ) ;
#136 = ORIENTED_EDGE ( 'NONE', *, *, #33, .F. ) ;
#137 = EDGE_LOOP ( 'NONE', ( #107 ) ) ;
#138 = EDGE_LOOP ( 'NONE', ( #208 ) ) ;
#139 = PERSON_AND_ORGANIZATION ( #203, #9 ) ;
#140 = CC_DESIGN_PERSON_AND_ORGANIZATION_ASSIGNMENT ( #60, #217, ( #85 ) ) ;
#141 = PERSON_AND_ORGANIZATION_ROLE ( 'creator' ) ;
#142 = DIRECTION ( 'NONE',  ( 0.0000000000000000000, 0.0000000000000000000, 1.000000000000000000 ) ) ;
#143 = CC_DESIGN_PERSON_AND_ORGANIZATION_ASSIGNMENT ( #41, #215, ( #44 ) ) ;
#144 = APPROVAL_STATUS ( 'not_yet_approved' ) ;
#145 = DIRECTION ( 'NONE',  ( 4.275831445896959482E-31, 1.000000000000000000, 1.224646799147353207E-16 ) ) ;
#146 = AXIS2_PLACEMENT_3D ( 'NONE', #12, #80, #214 ) ;
#147 = SECURITY_CLASSIFICATION_LEVEL ( 'unclassified' ) ;
#148 = CARTESIAN_POINT ( 'NONE',  ( 6.982962677686266711E-14, 2.249639673992782854E-32, 20.00000000000000000 ) ) ;
#149 = APPROVAL_STATUS ( 'not_yet_approved' ) ;
#150 = FACE_OUTER_BOUND ( 'NONE', #88, .T. ) ;
#151 = APPROVAL_PERSON_ORGANIZATION ( #11, #57, #64 ) ;
#152 = FACE_OUTER_BOUND ( 'NONE', #106, .T. ) ;
#153 = APPROVAL_DATE_TIME ( #133, #57 ) ;
#154 = PLANE ( 'NONE',  #31 ) ;
#155 = LOCAL_TIME ( 9, 5, 47.00000000000000000, #77 ) ;
#156 = CARTESIAN_POINT ( 'NONE',  ( 6.982962677686266711E-14, 2.999999999999997780, 20.00000000000000000 ) ) ;
#157 = VERTEX_POINT ( 'NONE', #135 ) ;
#158 = ORIENTED_EDGE ( 'NONE', *, *, #172, .T. ) ;
#159 = COORDINATED_UNIVERSAL_TIME_OFFSET ( 1, 0, .AHEAD. ) ;
#160 = FACE_OUTER_BOUND ( 'NONE', #4, .T. ) ;
#161 = ADVANCED_FACE ( 'NONE', ( #23, #152 ), #163, .T. ) ;
#162 = CARTESIAN_POINT ( 'NONE',  ( 0.0000000000000000000, 0.0000000000000000000, 0.0000000000000000000 ) ) ;
#163 = CYLINDRICAL_SURFACE ( 'NONE', #146, 2.999999999999992450 ) ;
#164 = CLOSED_SHELL ( 'NONE', ( #40, #165, #19, #94 ) ) ;
#165 = ADVANCED_FACE ( 'NONE', ( #131, #61 ), #65, .T. ) ;
#166 = DATE_TIME_ROLE ( 'classification_date' ) ;
#167 = DIRECTION ( 'NONE',  ( -4.275831445896958607E-31, -1.000000000000000000, -1.224646799147353207E-16 ) ) ;
#168 = CALENDAR_DATE ( 2021, 12, 11 ) ;
#169 = CARTESIAN_POINT ( 'NONE',  ( 2.601153597438134034E-13, -9.123618653647781159E-15, 74.50000000000000000 ) ) ;
#170 = AXIS2_PLACEMENT_3D ( 'NONE', #148, #188, #167 ) ;
#171 = DIRECTION ( 'NONE',  ( 0.0000000000000000000, 1.000000000000000000, 0.0000000000000000000 ) ) ;
#172 = EDGE_CURVE ( 'NONE', #34, #34, #187, .T. ) ;
#173 = CC_DESIGN_DATE_AND_TIME_ASSIGNMENT ( #43, #166, ( #44 ) ) ;
#174 = VERTEX_POINT ( 'NONE', #2 ) ;
#175 = ORIENTED_EDGE ( 'NONE', *, *, #223, .T. ) ;
#176 = EDGE_LOOP ( 'NONE', ( #35 ) ) ;
#177 = ADVANCED_BREP_SHAPE_REPRESENTATION ( '56337', ( #75, #76, #178 ), #200 ) ;
#178 = AXIS2_PLACEMENT_3D ( 'NONE', #162, #142, #55 ) ;
#179 = PERSON_AND_ORGANIZATION ( #203, #9 ) ;
#180 = APPLICATION_PROTOCOL_DEFINITION ( 'international standard', 'config_control_design', 1994, #181 ) ;
#181 = APPLICATION_CONTEXT ( 'configuration controlled 3d designs of mechanical parts and assemblies' ) ;
#182 = AXIS2_PLACEMENT_3D ( 'NONE', #48, #221, #10 ) ;
#183 = DATE_AND_TIME ( #105, #155 ) ;
#184 = DIRECTION ( 'NONE',  ( -3.491481338843133355E-15, 1.224646799147353207E-16, -1.000000000000000000 ) ) ;
#185 = EDGE_CURVE ( 'NONE', #87, #87, #18, .T. ) ;
#186 = FACE_OUTER_BOUND ( 'NONE', #138, .T. ) ;
#187 = CIRCLE ( 'NONE', #195, 2.999999999999984013 ) ;
#188 = DIRECTION ( 'NONE',  ( 3.491481338843133355E-15, -1.224646799147353207E-16, 1.000000000000000000 ) ) ;
#189 = DIRECTION ( 'NONE',  ( -3.491481338843133355E-15, 1.224646799147353207E-16, -1.000000000000000000 ) ) ;
#190 = APPROVAL ( #104, 'UNSPECIFIED' ) ;
#191 = FACE_OUTER_BOUND ( 'NONE', #16, .T. ) ;
#192 =( NAMED_UNIT ( * ) SI_UNIT ( $, .STERADIAN. ) SOLID_ANGLE_UNIT ( ) );
#193 = APPLICATION_PROTOCOL_DEFINITION ( 'international standard', 'config_control_design', 1994, #194 ) ;
#194 = APPLICATION_CONTEXT ( 'configuration controlled 3d designs of mechanical parts and assemblies' ) ;
#195 = AXIS2_PLACEMENT_3D ( 'NONE', #14, #25, #205 ) ;
#196 = VERTEX_POINT ( 'NONE', #156 ) ;
#197 = ORIENTED_EDGE ( 'NONE', *, *, #26, .T. ) ;
#198 = COORDINATED_UNIVERSAL_TIME_OFFSET ( 1, 0, .AHEAD. ) ;
#199 = MECHANICAL_CONTEXT ( 'NONE', #194, 'mechanical' ) ;
#200 =( GEOMETRIC_REPRESENTATION_CONTEXT ( 3 ) GLOBAL_UNCERTAINTY_ASSIGNED_CONTEXT ( ( #38 ) ) GLOBAL_UNIT_ASSIGNED_CONTEXT ( ( #51, #102, #192 ) ) REPRESENTATION_CONTEXT ( 'NONE', 'WORKASPACE' ) );
#201 = PERSON_AND_ORGANIZATION_ROLE ( 'design_supplier' ) ;
#202 = CARTESIAN_POINT ( 'NONE',  ( 6.982962677686253892E-16, -2.449293598294701915E-17, 0.1999999999999996225 ) ) ;
#203 = PERSON ( 'UNSPECIFIED', 'UNSPECIFIED', 'UNSPECIFIED', ('UNSPECIFIED'), ('UNSPECIFIED'), ('UNSPECIFIED') ) ;
#204 = CARTESIAN_POINT ( 'NONE',  ( -1.197232804851148375E-30, 4.199327391453201302E-32, -3.429011037612588783E-16 ) ) ;
#205 = DIRECTION ( 'NONE',  ( 0.0000000000000000000, 1.000000000000000000, 0.0000000000000000000 ) ) ;
#206 = CARTESIAN_POINT ( 'NONE',  ( 2.618611004132349638E-13, -9.184850993605147156E-15, 74.99999999999998579 ) ) ;
#207 = CC_DESIGN_APPROVAL ( #57, ( #44 ) ) ;
#208 = ORIENTED_EDGE ( 'NONE', *, *, #117, .T. ) ;
#209 = EDGE_LOOP ( 'NONE', ( #86 ) ) ;
#210 = AXIS2_PLACEMENT_3D ( 'NONE', #202, #42, #109 ) ;
#211 = APPROVAL_ROLE ( '' ) ;
#212 = ORIENTED_EDGE ( 'NONE', *, *, #185, .F. ) ;
#213 = CC_DESIGN_DATE_AND_TIME_ASSIGNMENT ( #183, #5, ( #220 ) ) ;
#214 = DIRECTION ( 'NONE',  ( 4.275831445896958607E-31, 1.000000000000000000, 1.224646799147353207E-16 ) ) ;
#215 = PERSON_AND_ORGANIZATION_ROLE ( 'classification_officer' ) ;
#216 = DIRECTION ( 'NONE',  ( -3.491481338843133355E-15, 1.224646799147353207E-16, -1.000000000000000000 ) ) ;
#217 = PERSON_AND_ORGANIZATION_ROLE ( 'creator' ) ;
#218 = DIRECTION ( 'NONE',  ( 3.491481338843133355E-15, -1.224646799147353207E-16, 1.000000000000000000 ) ) ;
#219 = APPROVAL_PERSON_ORGANIZATION ( #59, #190, #91 ) ;
#220 = PRODUCT_DEFINITION ( 'UNKNOWN', '', #85, #123 ) ;
#221 = DIRECTION ( 'NONE',  ( -3.491481338843133355E-15, 1.224646799147353207E-16, -1.000000000000000000 ) ) ;
#222 = DIRECTION ( 'NONE',  ( -3.491481338843133355E-15, 1.224646799147353207E-16, -1.000000000000000000 ) ) ;
#223 = EDGE_CURVE ( 'NONE', #174, #174, #24, .T. ) ;
ENDSEC;
END-ISO-10303-21;
