ISO-10303-21;
HEADER;
FILE_DESCRIPTION (( 'STEP AP203' ),
    '1' );
FILE_NAME ('56336.step',
    '2021-11-12T08:05:46',
    ( '' ),
    ( '' ),
    'SwSTEP 2.0',
    'SolidWorks 2019',
    '' );
FILE_SCHEMA (( 'CONFIG_CONTROL_DESIGN' ));
ENDSEC;

DATA;
#1 = LOCAL_TIME ( 9, 5, 46.00000000000000000, #124 ) ;
#2 = CIRCLE ( 'NONE', #87, 3.500000000000012434 ) ;
#3 = DATE_AND_TIME ( #163, #49 ) ;
#4 = SECURITY_CLASSIFICATION_LEVEL ( 'unclassified' ) ;
#5 = ORIENTED_EDGE ( 'NONE', *, *, #70, .T. ) ;
#6 = DATE_TIME_ROLE ( 'classification_date' ) ;
#7 = ORIENTED_EDGE ( 'NONE', *, *, #70, .F. ) ;
#8 = CLOSED_SHELL ( 'NONE', ( #158, #95, #110, #42 ) ) ;
#9 = DATE_AND_TIME ( #23, #211 ) ;
#10 = ADVANCED_FACE ( 'NONE', ( #217, #31 ), #160, .T. ) ;
#11 = LOCAL_TIME ( 9, 5, 46.00000000000000000, #103 ) ;
#12 = CARTESIAN_POINT ( 'NONE',  ( 8.728703347107833388E-14, 2.999519565323710837E-32, 25.00000000000000000 ) ) ;
#13 = COORDINATED_UNIVERSAL_TIME_OFFSET ( 1, 0, .AHEAD. ) ;
#14 = DIRECTION ( 'NONE',  ( 0.0000000000000000000, 1.000000000000000000, 0.0000000000000000000 ) ) ;
#15 = DIRECTION ( 'NONE',  ( -3.491481338843133355E-15, 1.224646799147353207E-16, -1.000000000000000000 ) ) ;
#16 = DIRECTION ( 'NONE',  ( -4.275831445896958607E-31, -1.000000000000000000, -1.224646799147353207E-16 ) ) ;
#17 = PRODUCT_DEFINITION ( 'UNKNOWN', '', #194, #129 ) ;
#18 = CARTESIAN_POINT ( 'NONE',  ( 0.0000000000000000000, 3.799999999999999822, 0.0000000000000000000 ) ) ;
#19 = CALENDAR_DATE ( 2021, 12, 11 ) ;
#20 = SHAPE_DEFINITION_REPRESENTATION ( #143, #104 ) ;
#21 = CIRCLE ( 'NONE', #30, 4.000000000000000000 ) ;
#22 = ORIENTED_EDGE ( 'NONE', *, *, #55, .F. ) ;
#23 = CALENDAR_DATE ( 2021, 12, 11 ) ;
#24 = ORIENTED_EDGE ( 'NONE', *, *, #46, .T. ) ;
#25 = AXIS2_PLACEMENT_3D ( 'NONE', #112, #149, #47 ) ;
#26 = CARTESIAN_POINT ( 'NONE',  ( 2.618611004132350143E-13, -9.184850993605148733E-15, 75.00000000000000000 ) ) ;
#27 = ORIENTED_EDGE ( 'NONE', *, *, #86, .T. ) ;
#28 = FACE_OUTER_BOUND ( 'NONE', #176, .T. ) ;
#29 = FACE_OUTER_BOUND ( 'NONE', #99, .T. ) ;
#30 = AXIS2_PLACEMENT_3D ( 'NONE', #43, #80, #152 ) ;
#31 = FACE_OUTER_BOUND ( 'NONE', #105, .T. ) ;
#32 = VERTEX_POINT ( 'NONE', #85 ) ;
#33 = ADVANCED_FACE ( 'NONE', ( #29 ), #45, .F. ) ;
#34 = AXIS2_PLACEMENT_3D ( 'NONE', #93, #218, #61 ) ;
#35 = PERSON_AND_ORGANIZATION_ROLE ( 'design_supplier' ) ;
#36 = PERSON_AND_ORGANIZATION ( #147, #59 ) ;
#37 = EDGE_LOOP ( 'NONE', ( #24 ) ) ;
#38 = APPROVAL ( #145, 'UNSPECIFIED' ) ;
#39 = PERSON_AND_ORGANIZATION_ROLE ( 'classification_officer' ) ;
#40 = AXIS2_PLACEMENT_3D ( 'NONE', #181, #170, #213 ) ;
#41 = EDGE_LOOP ( 'NONE', ( #133 ) ) ;
#42 = ADVANCED_FACE ( 'NONE', ( #201 ), #182, .T. ) ;
#43 = CARTESIAN_POINT ( 'NONE',  ( 6.982962677686249947E-16, -2.449293598294700375E-17, 0.1999999999999995115 ) ) ;
#44 = EDGE_LOOP ( 'NONE', ( #7 ) ) ;
#45 = PLANE ( 'NONE',  #185 ) ;
#46 = EDGE_CURVE ( 'NONE', #102, #102, #186, .T. ) ;
#47 = DIRECTION ( 'NONE',  ( 0.0000000000000000000, 1.000000000000000000, 0.0000000000000000000 ) ) ;
#48 = DIRECTION ( 'NONE',  ( 4.275831445896958607E-31, 1.000000000000000000, 1.224646799147353454E-16 ) ) ;
#49 = LOCAL_TIME ( 9, 5, 46.00000000000000000, #141 ) ;
#50 =( NAMED_UNIT ( * ) PLANE_ANGLE_UNIT ( ) SI_UNIT ( $, .RADIAN. ) );
#51 = APPROVAL_DATE_TIME ( #9, #164 ) ;
#52 = PERSON_AND_ORGANIZATION ( #147, #59 ) ;
#53 = EDGE_LOOP ( 'NONE', ( #27 ) ) ;
#54 = AXIS2_PLACEMENT_3D ( 'NONE', #132, #130, #195 ) ;
#55 = EDGE_CURVE ( 'NONE', #157, #157, #131, .T. ) ;
#56 = PLANE ( 'NONE',  #34 ) ;
#57 = DIRECTION ( 'NONE',  ( 4.275831445896958607E-31, 1.000000000000000000, 1.224646799147353207E-16 ) ) ;
#58 = DIRECTION ( 'NONE',  ( 3.491481338843133355E-15, -1.224646799147353207E-16, 1.000000000000000000 ) ) ;
#59 = ORGANIZATION ( 'UNSPECIFIED', 'UNSPECIFIED', '' ) ;
#60 = DIRECTION ( 'NONE',  ( 0.0000000000000000000, 1.000000000000000000, 0.0000000000000000000 ) ) ;
#61 = DIRECTION ( 'NONE',  ( 4.275831445896958607E-31, 1.000000000000000000, 1.224646799147353207E-16 ) ) ;
#62 = DIRECTION ( 'NONE',  ( -3.491481338843133355E-15, 1.224646799147353207E-16, -1.000000000000000000 ) ) ;
#63 = CARTESIAN_POINT ( 'NONE',  ( 8.728703347107833388E-14, 3.999999999999996447, 25.00000000000000000 ) ) ;
#64 = PERSON_AND_ORGANIZATION_ROLE ( 'design_owner' ) ;
#65 = LOCAL_TIME ( 9, 5, 46.00000000000000000, #13 ) ;
#66 = CC_DESIGN_PERSON_AND_ORGANIZATION_ASSIGNMENT ( #125, #89, ( #194 ) ) ;
#67 = APPROVAL_DATE_TIME ( #3, #150 ) ;
#68 = APPROVAL_DATE_TIME ( #146, #38 ) ;
#69 = EDGE_LOOP ( 'NONE', ( #5 ) ) ;
#70 = EDGE_CURVE ( 'NONE', #204, #204, #183, .T. ) ;
#71 = SECURITY_CLASSIFICATION ( '', '', #4 ) ;
#72 = ORIENTED_EDGE ( 'NONE', *, *, #215, .F. ) ;
#73 = MANIFOLD_SOLID_BREP ( 'Corps-Déplacer/Copier1[2]', #8 ) ;
#74 = CALENDAR_DATE ( 2021, 12, 11 ) ;
#75 = DATE_AND_TIME ( #123, #11 ) ;
#76 = CYLINDRICAL_SURFACE ( 'NONE', #115, 4.000000000000000000 ) ;
#77 = CARTESIAN_POINT ( 'NONE',  ( 8.728703347107833388E-14, -3.061616997868383043E-15, 25.00000000000000000 ) ) ;
#78 = FACE_OUTER_BOUND ( 'NONE', #210, .T. ) ;
#79 = CC_DESIGN_DATE_AND_TIME_ASSIGNMENT ( #75, #6, ( #71 ) ) ;
#80 = DIRECTION ( 'NONE',  ( -3.491481338843133355E-15, 1.224646799147353207E-16, -1.000000000000000000 ) ) ;
#81 = PLANE ( 'NONE',  #148 ) ;
#82 = DIRECTION ( 'NONE',  ( 3.491481338843133355E-15, -1.224646799147353207E-16, 1.000000000000000000 ) ) ;
#83 = APPROVAL_PERSON_ORGANIZATION ( #88, #38, #192 ) ;
#84 =( NAMED_UNIT ( * ) SI_UNIT ( $, .STERADIAN. ) SOLID_ANGLE_UNIT ( ) );
#85 = CARTESIAN_POINT ( 'NONE',  ( 2.618611004132350143E-13, 3.500000000000003109, 75.00000000000000000 ) ) ;
#86 = EDGE_CURVE ( 'NONE', #116, #116, #21, .T. ) ;
#87 = AXIS2_PLACEMENT_3D ( 'NONE', #26, #128, #60 ) ;
#88 = PERSON_AND_ORGANIZATION ( #147, #59 ) ;
#89 = PERSON_AND_ORGANIZATION_ROLE ( 'creator' ) ;
#90 = CC_DESIGN_APPROVAL ( #164, ( #194 ) ) ;
#91 =( GEOMETRIC_REPRESENTATION_CONTEXT ( 3 ) GLOBAL_UNCERTAINTY_ASSIGNED_CONTEXT ( ( #167 ) ) GLOBAL_UNIT_ASSIGNED_CONTEXT ( ( #174, #50, #84 ) ) REPRESENTATION_CONTEXT ( 'NONE', 'WORKASPACE' ) );
#92 = CC_DESIGN_PERSON_AND_ORGANIZATION_ASSIGNMENT ( #52, #35, ( #194 ) ) ;
#93 = CARTESIAN_POINT ( 'NONE',  ( -8.124079747204221177E-31, 2.849543587057529455E-32, -2.326828918379971365E-16 ) ) ;
#94 = DIRECTION ( 'NONE',  ( -3.491481338843133355E-15, 1.224646799147353207E-16, -1.000000000000000000 ) ) ;
#95 = ADVANCED_FACE ( 'NONE', ( #109, #214 ), #162, .T. ) ;
#96 = CARTESIAN_POINT ( 'NONE',  ( 2.601153597438134034E-13, -9.123618653647781159E-15, 74.50000000000000000 ) ) ;
#97 = ORIENTED_EDGE ( 'NONE', *, *, #86, .F. ) ;
#98 = APPROVAL_PERSON_ORGANIZATION ( #106, #164, #178 ) ;
#99 = EDGE_LOOP ( 'NONE', ( #193 ) ) ;
#100 = APPROVAL_ROLE ( '' ) ;
#101 = MECHANICAL_CONTEXT ( 'NONE', #113, 'mechanical' ) ;
#102 = VERTEX_POINT ( 'NONE', #159 ) ;
#103 = COORDINATED_UNIVERSAL_TIME_OFFSET ( 1, 0, .AHEAD. ) ;
#104 = ADVANCED_BREP_SHAPE_REPRESENTATION ( '56336', ( #219, #73, #216 ), #91 ) ;
#105 = EDGE_LOOP ( 'NONE', ( #22 ) ) ;
#106 = PERSON_AND_ORGANIZATION ( #147, #59 ) ;
#107 = CC_DESIGN_APPROVAL ( #150, ( #17 ) ) ;
#108 = CYLINDRICAL_SURFACE ( 'NONE', #139, 4.000000000000000000 ) ;
#109 = FACE_OUTER_BOUND ( 'NONE', #53, .T. ) ;
#110 = ADVANCED_FACE ( 'NONE', ( #198, #111 ), #108, .T. ) ;
#111 = FACE_OUTER_BOUND ( 'NONE', #168, .T. ) ;
#112 = CARTESIAN_POINT ( 'NONE',  ( 8.728703347107833388E-14, -3.061616997868383043E-15, 25.00000000000000000 ) ) ;
#113 = APPLICATION_CONTEXT ( 'configuration controlled 3d designs of mechanical parts and assemblies' ) ;
#114 = FACE_OUTER_BOUND ( 'NONE', #44, .T. ) ;
#115 = AXIS2_PLACEMENT_3D ( 'NONE', #153, #151, #57 ) ;
#116 = VERTEX_POINT ( 'NONE', #136 ) ;
#117 = DIRECTION ( 'NONE',  ( -4.275831445896958607E-31, -1.000000000000000000, -1.224646799147353207E-16 ) ) ;
#118 = AXIS2_PLACEMENT_3D ( 'NONE', #96, #169, #14 ) ;
#119 = CC_DESIGN_PERSON_AND_ORGANIZATION_ASSIGNMENT ( #189, #39, ( #71 ) ) ;
#120 = AXIS2_PLACEMENT_3D ( 'NONE', #12, #58, #16 ) ;
#121 = CARTESIAN_POINT ( 'NONE',  ( -1.624815949440844235E-30, 5.699087174115058910E-32, -4.653657836759942730E-16 ) ) ;
#122 = CARTESIAN_POINT ( 'NONE',  ( 8.728703347107833388E-14, 2.999519565323710837E-32, 25.00000000000000000 ) ) ;
#123 = CALENDAR_DATE ( 2021, 12, 11 ) ;
#124 = COORDINATED_UNIVERSAL_TIME_OFFSET ( 1, 0, .AHEAD. ) ;
#125 = PERSON_AND_ORGANIZATION ( #147, #59 ) ;
#126 = AXIS2_PLACEMENT_3D ( 'NONE', #121, #62, #48 ) ;
#127 = EDGE_LOOP ( 'NONE', ( #144 ) ) ;
#128 = DIRECTION ( 'NONE',  ( -3.491481338843133355E-15, 1.224646799147353207E-16, -1.000000000000000000 ) ) ;
#129 = DESIGN_CONTEXT ( 'detailed design', #177, 'design' ) ;
#130 = DIRECTION ( 'NONE',  ( 3.491481338843133355E-15, -1.224646799147353207E-16, 1.000000000000000000 ) ) ;
#131 = CIRCLE ( 'NONE', #40, 3.999999999999999112 ) ;
#132 = CARTESIAN_POINT ( 'NONE',  ( -1.624815949440844235E-30, 5.699087174115058910E-32, -4.653657836759942730E-16 ) ) ;
#133 = ORIENTED_EDGE ( 'NONE', *, *, #46, .F. ) ;
#134 = FACE_OUTER_BOUND ( 'NONE', #69, .T. ) ;
#135 = CLOSED_SHELL ( 'NONE', ( #191, #171, #10, #33 ) ) ;
#136 = CARTESIAN_POINT ( 'NONE',  ( 6.982962677686267697E-16, 4.000000000000000000, 0.2000000000000000111 ) ) ;
#137 = EDGE_CURVE ( 'NONE', #32, #32, #2, .T. ) ;
#138 = CARTESIAN_POINT ( 'NONE',  ( 0.0000000000000000000, 0.0000000000000000000, 0.0000000000000000000 ) ) ;
#139 = AXIS2_PLACEMENT_3D ( 'NONE', #180, #154, #179 ) ;
#140 = APPLICATION_PROTOCOL_DEFINITION ( 'international standard', 'config_control_design', 1994, #177 ) ;
#141 = COORDINATED_UNIVERSAL_TIME_OFFSET ( 1, 0, .AHEAD. ) ;
#142 = PERSON_AND_ORGANIZATION_ROLE ( 'creator' ) ;
#143 = PRODUCT_DEFINITION_SHAPE ( 'NONE', 'NONE',  #17 ) ;
#144 = ORIENTED_EDGE ( 'NONE', *, *, #137, .T. ) ;
#145 = APPROVAL_STATUS ( 'not_yet_approved' ) ;
#146 = DATE_AND_TIME ( #74, #1 ) ;
#147 = PERSON ( 'UNSPECIFIED', 'UNSPECIFIED', 'UNSPECIFIED', ('UNSPECIFIED'), ('UNSPECIFIED'), ('UNSPECIFIED') ) ;
#148 = AXIS2_PLACEMENT_3D ( 'NONE', #122, #82, #117 ) ;
#149 = DIRECTION ( 'NONE',  ( -3.491481338843133355E-15, 1.224646799147353207E-16, -1.000000000000000000 ) ) ;
#150 = APPROVAL ( #156, 'UNSPECIFIED' ) ;
#151 = DIRECTION ( 'NONE',  ( -3.491481338843133355E-15, 1.224646799147353207E-16, -1.000000000000000000 ) ) ;
#152 = DIRECTION ( 'NONE',  ( 4.333342374871280669E-31, 1.000000000000000000, 1.219727444046192488E-16 ) ) ;
#153 = CARTESIAN_POINT ( 'NONE',  ( 0.0000000000000000000, 0.0000000000000000000, 0.0000000000000000000 ) ) ;
#154 = DIRECTION ( 'NONE',  ( -3.491481338843133355E-15, 1.224646799147353207E-16, -1.000000000000000000 ) ) ;
#155 = CC_DESIGN_PERSON_AND_ORGANIZATION_ASSIGNMENT ( #36, #142, ( #17 ) ) ;
#156 = APPROVAL_STATUS ( 'not_yet_approved' ) ;
#157 = VERTEX_POINT ( 'NONE', #203 ) ;
#158 = ADVANCED_FACE ( 'NONE', ( #28 ), #56, .T. ) ;
#159 = CARTESIAN_POINT ( 'NONE',  ( 8.728703347107833388E-14, 3.999999999999996447, 25.00000000000000000 ) ) ;
#160 = CONICAL_SURFACE ( 'NONE', #118, 3.999999999999999112, 0.7853981633974348453 ) ;
#161 = CC_DESIGN_SECURITY_CLASSIFICATION ( #71, ( #194 ) ) ;
#162 = CONICAL_SURFACE ( 'NONE', #54, 3.799999999999999822, 0.7853981633974485010 ) ;
#163 = CALENDAR_DATE ( 2021, 12, 11 ) ;
#164 = APPROVAL ( #165, 'UNSPECIFIED' ) ;
#165 = APPROVAL_STATUS ( 'not_yet_approved' ) ;
#166 = DIRECTION ( 'NONE',  ( 4.275831445896958607E-31, 1.000000000000000000, 1.224646799147353207E-16 ) ) ;
#167 = UNCERTAINTY_MEASURE_WITH_UNIT (LENGTH_MEASURE( 1.000000000000000082E-05 ), #174, 'distance_accuracy_value', 'NONE');
#168 = EDGE_LOOP ( 'NONE', ( #97 ) ) ;
#169 = DIRECTION ( 'NONE',  ( -3.491481338843133355E-15, 1.224646799147353207E-16, -1.000000000000000000 ) ) ;
#170 = DIRECTION ( 'NONE',  ( -3.491481338843133355E-15, 1.224646799147353207E-16, -1.000000000000000000 ) ) ;
#171 = ADVANCED_FACE ( 'NONE', ( #78, #114 ), #76, .T. ) ;
#172 = APPROVAL_PERSON_ORGANIZATION ( #207, #150, #100 ) ;
#173 = CARTESIAN_POINT ( 'NONE',  ( 2.618611004132350143E-13, 2.624579619658246435E-32, 75.00000000000000000 ) ) ;
#174 =( LENGTH_UNIT ( ) NAMED_UNIT ( * ) SI_UNIT ( .MILLI., .METRE. ) );
#175 = COORDINATED_UNIVERSAL_TIME_OFFSET ( 1, 0, .AHEAD. ) ;
#176 = EDGE_LOOP ( 'NONE', ( #196 ) ) ;
#177 = APPLICATION_CONTEXT ( 'configuration controlled 3d designs of mechanical parts and assemblies' ) ;
#178 = APPROVAL_ROLE ( '' ) ;
#179 = DIRECTION ( 'NONE',  ( 4.275831445896958607E-31, 1.000000000000000000, 1.224646799147353207E-16 ) ) ;
#180 = CARTESIAN_POINT ( 'NONE',  ( 0.0000000000000000000, 0.0000000000000000000, 0.0000000000000000000 ) ) ;
#181 = CARTESIAN_POINT ( 'NONE',  ( 2.601153597438134034E-13, -9.123618653647781159E-15, 74.50000000000000000 ) ) ;
#182 = PLANE ( 'NONE',  #120 ) ;
#183 = CIRCLE ( 'NONE', #206, 4.000000000000000000 ) ;
#184 = VERTEX_POINT ( 'NONE', #18 ) ;
#185 = AXIS2_PLACEMENT_3D ( 'NONE', #173, #94, #166 ) ;
#186 = CIRCLE ( 'NONE', #25, 4.000000000000000000 ) ;
#187 = DIRECTION ( 'NONE',  ( 0.0000000000000000000, 0.0000000000000000000, 1.000000000000000000 ) ) ;
#188 = DATE_AND_TIME ( #19, #65 ) ;
#189 = PERSON_AND_ORGANIZATION ( #147, #59 ) ;
#190 = EDGE_LOOP ( 'NONE', ( #72 ) ) ;
#191 = ADVANCED_FACE ( 'NONE', ( #134 ), #81, .F. ) ;
#192 = APPROVAL_ROLE ( '' ) ;
#193 = ORIENTED_EDGE ( 'NONE', *, *, #137, .F. ) ;
#194 = PRODUCT_DEFINITION_FORMATION_WITH_SPECIFIED_SOURCE ( 'ANY', '', #220, .NOT_KNOWN. ) ;
#195 = DIRECTION ( 'NONE',  ( -4.275831445896958607E-31, -1.000000000000000000, -1.224646799147353454E-16 ) ) ;
#196 = ORIENTED_EDGE ( 'NONE', *, *, #215, .T. ) ;
#197 = CIRCLE ( 'NONE', #126, 3.799999999999999822 ) ;
#198 = FACE_OUTER_BOUND ( 'NONE', #37, .T. ) ;
#199 = CC_DESIGN_DATE_AND_TIME_ASSIGNMENT ( #188, #208, ( #17 ) ) ;
#200 = ORIENTED_EDGE ( 'NONE', *, *, #55, .T. ) ;
#201 = FACE_OUTER_BOUND ( 'NONE', #41, .T. ) ;
#202 = CC_DESIGN_PERSON_AND_ORGANIZATION_ASSIGNMENT ( #223, #64, ( #220 ) ) ;
#203 = CARTESIAN_POINT ( 'NONE',  ( 2.601153597438134034E-13, 3.999999999999989786, 74.50000000000000000 ) ) ;
#204 = VERTEX_POINT ( 'NONE', #63 ) ;
#205 = APPLICATION_PROTOCOL_DEFINITION ( 'international standard', 'config_control_design', 1994, #113 ) ;
#206 = AXIS2_PLACEMENT_3D ( 'NONE', #77, #15, #212 ) ;
#207 = PERSON_AND_ORGANIZATION ( #147, #59 ) ;
#208 = DATE_TIME_ROLE ( 'creation_date' ) ;
#209 = CC_DESIGN_APPROVAL ( #38, ( #71 ) ) ;
#210 = EDGE_LOOP ( 'NONE', ( #200 ) ) ;
#211 = LOCAL_TIME ( 9, 5, 46.00000000000000000, #175 ) ;
#212 = DIRECTION ( 'NONE',  ( 0.0000000000000000000, 1.000000000000000000, 0.0000000000000000000 ) ) ;
#213 = DIRECTION ( 'NONE',  ( 0.0000000000000000000, 1.000000000000000000, 0.0000000000000000000 ) ) ;
#214 = FACE_BOUND ( 'NONE', #190, .T. ) ;
#215 = EDGE_CURVE ( 'NONE', #184, #184, #197, .T. ) ;
#216 = AXIS2_PLACEMENT_3D ( 'NONE', #138, #187, #221 ) ;
#217 = FACE_BOUND ( 'NONE', #127, .T. ) ;
#218 = DIRECTION ( 'NONE',  ( -3.491481338843133355E-15, 1.224646799147353207E-16, -1.000000000000000000 ) ) ;
#219 = MANIFOLD_SOLID_BREP ( 'Corps-Déplacer/Copier1[1]', #135 ) ;
#220 = PRODUCT ( '56336', '56336', '', ( #101 ) ) ;
#221 = DIRECTION ( 'NONE',  ( 1.000000000000000000, 0.0000000000000000000, 0.0000000000000000000 ) ) ;
#222 = PRODUCT_RELATED_PRODUCT_CATEGORY ( 'detail', '', ( #220 ) ) ;
#223 = PERSON_AND_ORGANIZATION ( #147, #59 ) ;
ENDSEC;
END-ISO-10303-21;
