ISO-10303-21;
HEADER;
FILE_DESCRIPTION (( 'STEP AP203' ),
    '1' );
FILE_NAME ('56335.step',
    '2021-11-12T07:08:21',
    ( '' ),
    ( '' ),
    'SwSTEP 2.0',
    'SolidWorks 2019',
    '' );
FILE_SCHEMA (( 'CONFIG_CONTROL_DESIGN' ));
ENDSEC;

DATA;
#1 = CC_DESIGN_PERSON_AND_ORGANIZATION_ASSIGNMENT ( #19, #106, ( #162 ) ) ;
#2 =( NAMED_UNIT ( * ) SI_UNIT ( $, .STERADIAN. ) SOLID_ANGLE_UNIT ( ) );
#3 = CARTESIAN_POINT ( 'NONE',  ( 1.222018468595096801E-13, 9.999999999999996447, 35.00000000000000000 ) ) ;
#4 = APPROVAL_PERSON_ORGANIZATION ( #128, #151, #46 ) ;
#5 = DATE_AND_TIME ( #125, #134 ) ;
#6 = DESIGN_CONTEXT ( 'detailed design', #51, 'design' ) ;
#7 = FACE_OUTER_BOUND ( 'NONE', #222, .T. ) ;
#8 = EDGE_LOOP ( 'NONE', ( #117 ) ) ;
#9 = CALENDAR_DATE ( 2021, 12, 11 ) ;
#10 = MECHANICAL_CONTEXT ( 'NONE', #171, 'mechanical' ) ;
#11 = AXIS2_PLACEMENT_3D ( 'NONE', #58, #149, #178 ) ;
#12 = CALENDAR_DATE ( 2021, 12, 11 ) ;
#13 = CARTESIAN_POINT ( 'NONE',  ( 0.0000000000000000000, 0.0000000000000000000, 0.0000000000000000000 ) ) ;
#14 = ORIENTED_EDGE ( 'NONE', *, *, #82, .T. ) ;
#15 = PLANE ( 'NONE',  #214 ) ;
#16 = DIRECTION ( 'NONE',  ( 1.000000000000000000, 0.0000000000000000000, -3.491130995403324278E-15 ) ) ;
#17 = EDGE_LOOP ( 'NONE', ( #202 ) ) ;
#18 = FACE_OUTER_BOUND ( 'NONE', #42, .T. ) ;
#19 = PERSON_AND_ORGANIZATION ( #53, #31 ) ;
#20 = PRODUCT_DEFINITION ( 'UNKNOWN', '', #110, #6 ) ;
#21 = DIRECTION ( 'NONE',  ( 0.0000000000000000000, 1.000000000000000000, 0.0000000000000000000 ) ) ;
#22 = VERTEX_POINT ( 'NONE', #182 ) ;
#23 =( LENGTH_UNIT ( ) NAMED_UNIT ( * ) SI_UNIT ( .MILLI., .METRE. ) );
#24 = APPROVAL ( #114, 'UNSPECIFIED' ) ;
#25 = FACE_BOUND ( 'NONE', #139, .T. ) ;
#26 = DIRECTION ( 'NONE',  ( 0.0000000000000000000, 0.0000000000000000000, 1.000000000000000000 ) ) ;
#27 = CARTESIAN_POINT ( 'NONE',  ( 3.491481338843133355E-16, 0.0000000000000000000, 0.1000000000000000056 ) ) ;
#28 = APPROVAL_ROLE ( '' ) ;
#29 = EDGE_CURVE ( 'NONE', #206, #206, #45, .T. ) ;
#30 = PERSON_AND_ORGANIZATION ( #53, #31 ) ;
#31 = ORGANIZATION ( 'UNSPECIFIED', 'UNSPECIFIED', '' ) ;
#32 = SECURITY_CLASSIFICATION_LEVEL ( 'unclassified' ) ;
#33 = DIRECTION ( 'NONE',  ( 3.491481338843133355E-15, -1.224646799147353454E-16, 1.000000000000000000 ) ) ;
#34 = EDGE_LOOP ( 'NONE', ( #74 ) ) ;
#35 = DIRECTION ( 'NONE',  ( 3.491481338843133355E-15, -0.0000000000000000000, 1.000000000000000000 ) ) ;
#36 = DIRECTION ( 'NONE',  ( -3.491481338843133355E-15, 1.224646799147353454E-16, -1.000000000000000000 ) ) ;
#37 = CARTESIAN_POINT ( 'NONE',  ( 3.561310965619997285E-13, 9.999999999999994671, 102.0000000000000284 ) ) ;
#38 = APPROVAL_PERSON_ORGANIZATION ( #150, #66, #28 ) ;
#39 = CLOSED_SHELL ( 'NONE', ( #104, #220, #146, #210 ) ) ;
#40 = LOCAL_TIME ( 8, 8, 21.00000000000000000, #186 ) ;
#41 = CARTESIAN_POINT ( 'NONE',  ( 0.0000000000000000000, 0.0000000000000000000, 0.0000000000000000000 ) ) ;
#42 = EDGE_LOOP ( 'NONE', ( #92 ) ) ;
#43 = DATE_TIME_ROLE ( 'creation_date' ) ;
#44 = EDGE_LOOP ( 'NONE', ( #168 ) ) ;
#45 = CIRCLE ( 'NONE', #94, 10.00000000000000711 ) ;
#46 = APPROVAL_ROLE ( '' ) ;
#47 = DIRECTION ( 'NONE',  ( 0.0000000000000000000, 1.000000000000000000, 0.0000000000000000000 ) ) ;
#48 = DIRECTION ( 'NONE',  ( 3.491481338843133355E-15, -1.224646799147353454E-16, 1.000000000000000000 ) ) ;
#49 = CARTESIAN_POINT ( 'NONE',  ( -4.731839565957903391E-32, 0.0000000000000000000, -1.355252715606880543E-17 ) ) ;
#50 = VERTEX_POINT ( 'NONE', #163 ) ;
#51 = APPLICATION_CONTEXT ( 'configuration controlled 3d designs of mechanical parts and assemblies' ) ;
#52 = DATE_AND_TIME ( #144, #123 ) ;
#53 = PERSON ( 'UNSPECIFIED', 'UNSPECIFIED', 'UNSPECIFIED', ('UNSPECIFIED'), ('UNSPECIFIED'), ('UNSPECIFIED') ) ;
#54 = PERSON_AND_ORGANIZATION_ROLE ( 'design_supplier' ) ;
#55 = CC_DESIGN_DATE_AND_TIME_ASSIGNMENT ( #73, #43, ( #20 ) ) ;
#56 = DIRECTION ( 'NONE',  ( 4.275831445896958607E-31, 1.000000000000000000, 1.224646799147353454E-16 ) ) ;
#57 = MANIFOLD_SOLID_BREP ( 'Corps-Déplacer/Copier1[1]', #39 ) ;
#58 = CARTESIAN_POINT ( 'NONE',  ( 3.561310965619997285E-13, -1.249139735130300878E-14, 102.0000000000000284 ) ) ;
#59 = PRODUCT ( '56335', '56335', '', ( #10 ) ) ;
#60 = CARTESIAN_POINT ( 'NONE',  ( 10.00000000000000000, 0.0000000000000000000, 0.09999999999996508904 ) ) ;
#61 = VERTEX_POINT ( 'NONE', #3 ) ;
#62 = EDGE_LOOP ( 'NONE', ( #157 ) ) ;
#63 = AXIS2_PLACEMENT_3D ( 'NONE', #196, #107, #21 ) ;
#64 = FACE_BOUND ( 'NONE', #172, .T. ) ;
#65 = AXIS2_PLACEMENT_3D ( 'NONE', #140, #223, #143 ) ;
#66 = APPROVAL ( #113, 'UNSPECIFIED' ) ;
#67 = CC_DESIGN_SECURITY_CLASSIFICATION ( #162, ( #110 ) ) ;
#68 = DIRECTION ( 'NONE',  ( -3.491481338843133355E-15, 1.224646799147353454E-16, -1.000000000000000000 ) ) ;
#69 = FACE_OUTER_BOUND ( 'NONE', #153, .T. ) ;
#70 = CYLINDRICAL_SURFACE ( 'NONE', #65, 10.00000000000000355 ) ;
#71 = CARTESIAN_POINT ( 'NONE',  ( 3.561310965619997285E-13, -1.249139735130300878E-14, 102.0000000000000284 ) ) ;
#72 = CONICAL_SURFACE ( 'NONE', #180, 10.00000000000000000, 0.7853981633974538301 ) ;
#73 = DATE_AND_TIME ( #9, #40 ) ;
#74 = ORIENTED_EDGE ( 'NONE', *, *, #197, .F. ) ;
#75 = APPROVAL_DATE_TIME ( #132, #66 ) ;
#76 = ADVANCED_FACE ( 'NONE', ( #69 ), #136, .T. ) ;
#77 = DIRECTION ( 'NONE',  ( 4.275831445896959482E-31, 1.000000000000000000, 1.224646799147353454E-16 ) ) ;
#78 = AXIS2_PLACEMENT_3D ( 'NONE', #13, #26, #190 ) ;
#79 = CARTESIAN_POINT ( 'NONE',  ( 1.222018468595096801E-13, 7.498798913309285850E-32, 35.00000000000000000 ) ) ;
#80 = APPLICATION_PROTOCOL_DEFINITION ( 'international standard', 'config_control_design', 1994, #171 ) ;
#81 = DIRECTION ( 'NONE',  ( -3.491481338843133355E-15, 1.224646799147353454E-16, -1.000000000000000000 ) ) ;
#82 = EDGE_CURVE ( 'NONE', #50, #50, #198, .T. ) ;
#83 = DIRECTION ( 'NONE',  ( 4.275831445896959482E-31, 1.000000000000000000, 1.224646799147353454E-16 ) ) ;
#84 = PERSON_AND_ORGANIZATION ( #53, #31 ) ;
#85 = FACE_OUTER_BOUND ( 'NONE', #44, .T. ) ;
#86 = CIRCLE ( 'NONE', #212, 9.899999999999998579 ) ;
#87 = AXIS2_PLACEMENT_3D ( 'NONE', #41, #213, #56 ) ;
#88 = CARTESIAN_POINT ( 'NONE',  ( 3.631140592396858689E-13, 8.000000000000014211, 104.0000000000000000 ) ) ;
#89 = FACE_OUTER_BOUND ( 'NONE', #62, .T. ) ;
#90 = CC_DESIGN_APPROVAL ( #66, ( #110 ) ) ;
#91 = CC_DESIGN_DATE_AND_TIME_ASSIGNMENT ( #142, #193, ( #162 ) ) ;
#92 = ORIENTED_EDGE ( 'NONE', *, *, #176, .F. ) ;
#93 = DIRECTION ( 'NONE',  ( 3.491481338843133355E-15, -0.0000000000000000000, 1.000000000000000000 ) ) ;
#94 = AXIS2_PLACEMENT_3D ( 'NONE', #71, #155, #97 ) ;
#95 = PERSON_AND_ORGANIZATION_ROLE ( 'design_owner' ) ;
#96 = CALENDAR_DATE ( 2021, 12, 11 ) ;
#97 = DIRECTION ( 'NONE',  ( 0.0000000000000000000, 1.000000000000000000, 0.0000000000000000000 ) ) ;
#98 = FACE_OUTER_BOUND ( 'NONE', #217, .T. ) ;
#99 = AXIS2_PLACEMENT_3D ( 'NONE', #203, #68, #47 ) ;
#100 = ORIENTED_EDGE ( 'NONE', *, *, #116, .T. ) ;
#101 = CARTESIAN_POINT ( 'NONE',  ( 1.222018468595096801E-13, -4.286263797015737285E-15, 35.00000000000000000 ) ) ;
#102 = PLANE ( 'NONE',  #170 ) ;
#103 = ADVANCED_BREP_SHAPE_REPRESENTATION ( '56335', ( #57, #135, #78 ), #148 ) ;
#104 = ADVANCED_FACE ( 'NONE', ( #98 ), #15, .F. ) ;
#105 = AXIS2_PLACEMENT_3D ( 'NONE', #101, #159, #204 ) ;
#106 = PERSON_AND_ORGANIZATION_ROLE ( 'classification_officer' ) ;
#107 = DIRECTION ( 'NONE',  ( -3.491481338843133355E-15, 1.224646799147353454E-16, -1.000000000000000000 ) ) ;
#108 = CC_DESIGN_PERSON_AND_ORGANIZATION_ASSIGNMENT ( #201, #54, ( #110 ) ) ;
#109 = CONICAL_SURFACE ( 'NONE', #11, 10.00000000000000711, 0.7853981633974533860 ) ;
#110 = PRODUCT_DEFINITION_FORMATION_WITH_SPECIFIED_SOURCE ( 'ANY', '', #59, .NOT_KNOWN. ) ;
#111 = APPROVAL_DATE_TIME ( #52, #24 ) ;
#112 = CC_DESIGN_PERSON_AND_ORGANIZATION_ASSIGNMENT ( #215, #115, ( #20 ) ) ;
#113 = APPROVAL_STATUS ( 'not_yet_approved' ) ;
#114 = APPROVAL_STATUS ( 'not_yet_approved' ) ;
#115 = PERSON_AND_ORGANIZATION_ROLE ( 'creator' ) ;
#116 = EDGE_CURVE ( 'NONE', #221, #221, #192, .T. ) ;
#117 = ORIENTED_EDGE ( 'NONE', *, *, #116, .F. ) ;
#118 = CIRCLE ( 'NONE', #105, 10.00000000000000000 ) ;
#119 = DIRECTION ( 'NONE',  ( -4.275831445896959482E-31, -1.000000000000000000, -1.224646799147353454E-16 ) ) ;
#120 = LOCAL_TIME ( 8, 8, 21.00000000000000000, #169 ) ;
#121 = CARTESIAN_POINT ( 'NONE',  ( 3.631140592396858689E-13, 5.999039130647433716E-32, 104.0000000000000000 ) ) ;
#122 =( NAMED_UNIT ( * ) PLANE_ANGLE_UNIT ( ) SI_UNIT ( $, .RADIAN. ) );
#123 = LOCAL_TIME ( 8, 8, 21.00000000000000000, #164 ) ;
#124 = VERTEX_POINT ( 'NONE', #88 ) ;
#125 = CALENDAR_DATE ( 2021, 12, 11 ) ;
#126 = PLANE ( 'NONE',  #194 ) ;
#127 = CC_DESIGN_PERSON_AND_ORGANIZATION_ASSIGNMENT ( #30, #95, ( #59 ) ) ;
#128 = PERSON_AND_ORGANIZATION ( #53, #31 ) ;
#129 = FACE_OUTER_BOUND ( 'NONE', #8, .T. ) ;
#130 = APPROVAL_DATE_TIME ( #5, #151 ) ;
#131 = ORIENTED_EDGE ( 'NONE', *, *, #29, .F. ) ;
#132 = DATE_AND_TIME ( #12, #120 ) ;
#133 = APPLICATION_PROTOCOL_DEFINITION ( 'international standard', 'config_control_design', 1994, #51 ) ;
#134 = LOCAL_TIME ( 8, 8, 21.00000000000000000, #138 ) ;
#135 = MANIFOLD_SOLID_BREP ( 'Corps-Déplacer/Copier1[2]', #211 ) ;
#136 = PLANE ( 'NONE',  #161 ) ;
#137 = CC_DESIGN_PERSON_AND_ORGANIZATION_ASSIGNMENT ( #152, #216, ( #110 ) ) ;
#138 = COORDINATED_UNIVERSAL_TIME_OFFSET ( 1, 0, .AHEAD. ) ;
#139 = EDGE_LOOP ( 'NONE', ( #219 ) ) ;
#140 = CARTESIAN_POINT ( 'NONE',  ( 0.0000000000000000000, 0.0000000000000000000, 0.0000000000000000000 ) ) ;
#141 = ORIENTED_EDGE ( 'NONE', *, *, #200, .F. ) ;
#142 = DATE_AND_TIME ( #96, #166 ) ;
#143 = DIRECTION ( 'NONE',  ( 4.275831445896959482E-31, 1.000000000000000000, 1.224646799147353700E-16 ) ) ;
#144 = CALENDAR_DATE ( 2021, 12, 11 ) ;
#145 = CC_DESIGN_APPROVAL ( #24, ( #162 ) ) ;
#146 = ADVANCED_FACE ( 'NONE', ( #64, #209 ), #109, .T. ) ;
#147 = FACE_OUTER_BOUND ( 'NONE', #34, .T. ) ;
#148 =( GEOMETRIC_REPRESENTATION_CONTEXT ( 3 ) GLOBAL_UNCERTAINTY_ASSIGNED_CONTEXT ( ( #183 ) ) GLOBAL_UNIT_ASSIGNED_CONTEXT ( ( #23, #122, #2 ) ) REPRESENTATION_CONTEXT ( 'NONE', 'WORKASPACE' ) );
#149 = DIRECTION ( 'NONE',  ( -3.491481338843133355E-15, 1.224646799147353454E-16, -1.000000000000000000 ) ) ;
#150 = PERSON_AND_ORGANIZATION ( #53, #31 ) ;
#151 = APPROVAL ( #165, 'UNSPECIFIED' ) ;
#152 = PERSON_AND_ORGANIZATION ( #53, #31 ) ;
#153 = EDGE_LOOP ( 'NONE', ( #141 ) ) ;
#154 = DIRECTION ( 'NONE',  ( -4.275831445896959482E-31, -1.000000000000000000, -1.224646799147353454E-16 ) ) ;
#155 = DIRECTION ( 'NONE',  ( -3.491481338843133355E-15, 1.224646799147353454E-16, -1.000000000000000000 ) ) ;
#156 = DIRECTION ( 'NONE',  ( 1.000000000000000000, 0.0000000000000000000, -3.491481338843133355E-15 ) ) ;
#157 = ORIENTED_EDGE ( 'NONE', *, *, #197, .T. ) ;
#158 = COORDINATED_UNIVERSAL_TIME_OFFSET ( 1, 0, .AHEAD. ) ;
#159 = DIRECTION ( 'NONE',  ( -3.491481338843133355E-15, 1.224646799147353454E-16, -1.000000000000000000 ) ) ;
#160 = APPROVAL_ROLE ( '' ) ;
#161 = AXIS2_PLACEMENT_3D ( 'NONE', #189, #81, #77 ) ;
#162 = SECURITY_CLASSIFICATION ( '', '', #32 ) ;
#163 = CARTESIAN_POINT ( 'NONE',  ( 1.222018468595096801E-13, 9.999999999999996447, 35.00000000000000000 ) ) ;
#164 = COORDINATED_UNIVERSAL_TIME_OFFSET ( 1, 0, .AHEAD. ) ;
#165 = APPROVAL_STATUS ( 'not_yet_approved' ) ;
#166 = LOCAL_TIME ( 8, 8, 21.00000000000000000, #158 ) ;
#167 = SHAPE_DEFINITION_REPRESENTATION ( #181, #103 ) ;
#168 = ORIENTED_EDGE ( 'NONE', *, *, #82, .F. ) ;
#169 = COORDINATED_UNIVERSAL_TIME_OFFSET ( 1, 0, .AHEAD. ) ;
#170 = AXIS2_PLACEMENT_3D ( 'NONE', #121, #36, #83 ) ;
#171 = APPLICATION_CONTEXT ( 'configuration controlled 3d designs of mechanical parts and assemblies' ) ;
#172 = EDGE_LOOP ( 'NONE', ( #173 ) ) ;
#173 = ORIENTED_EDGE ( 'NONE', *, *, #176, .T. ) ;
#174 = DIRECTION ( 'NONE',  ( 1.000000000000000000, 0.0000000000000000000, -3.491130995403324278E-15 ) ) ;
#175 = DIRECTION ( 'NONE',  ( 3.491481338843133355E-15, -0.0000000000000000000, 1.000000000000000000 ) ) ;
#176 = EDGE_CURVE ( 'NONE', #124, #124, #205, .T. ) ;
#177 = FACE_OUTER_BOUND ( 'NONE', #17, .T. ) ;
#178 = DIRECTION ( 'NONE',  ( 0.0000000000000000000, 1.000000000000000000, 0.0000000000000000000 ) ) ;
#179 = AXIS2_PLACEMENT_3D ( 'NONE', #191, #35, #174 ) ;
#180 = AXIS2_PLACEMENT_3D ( 'NONE', #27, #93, #16 ) ;
#181 = PRODUCT_DEFINITION_SHAPE ( 'NONE', 'NONE',  #20 ) ;
#182 = CARTESIAN_POINT ( 'NONE',  ( 9.899999999999998579, 0.0000000000000000000, -3.457921778170308271E-14 ) ) ;
#183 = UNCERTAINTY_MEASURE_WITH_UNIT (LENGTH_MEASURE( 1.000000000000000082E-05 ), #23, 'distance_accuracy_value', 'NONE');
#184 = CYLINDRICAL_SURFACE ( 'NONE', #87, 10.00000000000000000 ) ;
#185 = ADVANCED_FACE ( 'NONE', ( #89, #7 ), #184, .T. ) ;
#186 = COORDINATED_UNIVERSAL_TIME_OFFSET ( 1, 0, .AHEAD. ) ;
#187 = ADVANCED_FACE ( 'NONE', ( #147 ), #126, .T. ) ;
#188 = CARTESIAN_POINT ( 'NONE',  ( 1.222018468595096801E-13, 7.498798913309285850E-32, 35.00000000000000000 ) ) ;
#189 = CARTESIAN_POINT ( 'NONE',  ( -2.137915722948479478E-30, 7.498798913309291323E-32, -6.123233995736767268E-16 ) ) ;
#190 = DIRECTION ( 'NONE',  ( 1.000000000000000000, 0.0000000000000000000, 0.0000000000000000000 ) ) ;
#191 = CARTESIAN_POINT ( 'NONE',  ( 3.491481338843133355E-16, 0.0000000000000000000, 0.1000000000000000056 ) ) ;
#192 = CIRCLE ( 'NONE', #179, 10.00000000000000000 ) ;
#193 = DATE_TIME_ROLE ( 'classification_date' ) ;
#194 = AXIS2_PLACEMENT_3D ( 'NONE', #188, #33, #154 ) ;
#195 = ADVANCED_FACE ( 'NONE', ( #25, #129 ), #72, .T. ) ;
#196 = CARTESIAN_POINT ( 'NONE',  ( 3.631140592396858689E-13, -1.273632671113247592E-14, 104.0000000000000000 ) ) ;
#197 = EDGE_CURVE ( 'NONE', #61, #61, #118, .T. ) ;
#198 = CIRCLE ( 'NONE', #99, 10.00000000000000000 ) ;
#199 = EDGE_LOOP ( 'NONE', ( #131 ) ) ;
#200 = EDGE_CURVE ( 'NONE', #22, #22, #86, .T. ) ;
#201 = PERSON_AND_ORGANIZATION ( #53, #31 ) ;
#202 = ORIENTED_EDGE ( 'NONE', *, *, #29, .T. ) ;
#203 = CARTESIAN_POINT ( 'NONE',  ( 1.222018468595096801E-13, -4.286263797015737285E-15, 35.00000000000000000 ) ) ;
#204 = DIRECTION ( 'NONE',  ( 0.0000000000000000000, 1.000000000000000000, 0.0000000000000000000 ) ) ;
#205 = CIRCLE ( 'NONE', #63, 8.000000000000026645 ) ;
#206 = VERTEX_POINT ( 'NONE', #37 ) ;
#207 = PRODUCT_RELATED_PRODUCT_CATEGORY ( 'detail', '', ( #59 ) ) ;
#208 = CC_DESIGN_APPROVAL ( #151, ( #20 ) ) ;
#209 = FACE_OUTER_BOUND ( 'NONE', #199, .T. ) ;
#210 = ADVANCED_FACE ( 'NONE', ( #18 ), #102, .F. ) ;
#211 = CLOSED_SHELL ( 'NONE', ( #185, #187, #195, #76 ) ) ;
#212 = AXIS2_PLACEMENT_3D ( 'NONE', #49, #175, #156 ) ;
#213 = DIRECTION ( 'NONE',  ( -3.491481338843133355E-15, 1.224646799147353454E-16, -1.000000000000000000 ) ) ;
#214 = AXIS2_PLACEMENT_3D ( 'NONE', #79, #48, #119 ) ;
#215 = PERSON_AND_ORGANIZATION ( #53, #31 ) ;
#216 = PERSON_AND_ORGANIZATION_ROLE ( 'creator' ) ;
#217 = EDGE_LOOP ( 'NONE', ( #14 ) ) ;
#218 = APPROVAL_PERSON_ORGANIZATION ( #84, #24, #160 ) ;
#219 = ORIENTED_EDGE ( 'NONE', *, *, #200, .T. ) ;
#220 = ADVANCED_FACE ( 'NONE', ( #177, #85 ), #70, .T. ) ;
#221 = VERTEX_POINT ( 'NONE', #60 ) ;
#222 = EDGE_LOOP ( 'NONE', ( #100 ) ) ;
#223 = DIRECTION ( 'NONE',  ( -3.491481338843133355E-15, 1.224646799147353454E-16, -1.000000000000000000 ) ) ;
ENDSEC;
END-ISO-10303-21;
