ISO-10303-21;
HEADER;
FILE_DESCRIPTION (( 'STEP AP203' ),
    '1' );
FILE_NAME ('56334.step',
    '2021-11-12T07:08:20',
    ( '' ),
    ( '' ),
    'SwSTEP 2.0',
    'SolidWorks 2019',
    '' );
FILE_SCHEMA (( 'CONFIG_CONTROL_DESIGN' ));
ENDSEC;

DATA;
#1 = AXIS2_PLACEMENT_3D ( 'NONE', #101, #44, #103 ) ;
#2 = DATE_AND_TIME ( #209, #88 ) ;
#3 = COORDINATED_UNIVERSAL_TIME_OFFSET ( 1, 0, .AHEAD. ) ;
#4 = PRODUCT_DEFINITION ( 'UNKNOWN', '', #192, #34 ) ;
#5 = FACE_OUTER_BOUND ( 'NONE', #180, .T. ) ;
#6 = DIRECTION ( 'NONE',  ( -3.491481338843133355E-15, 1.224646799147353207E-16, -1.000000000000000000 ) ) ;
#7 = AXIS2_PLACEMENT_3D ( 'NONE', #215, #217, #185 ) ;
#8 = LOCAL_TIME ( 8, 8, 20.00000000000000000, #3 ) ;
#9 = FACE_BOUND ( 'NONE', #83, .T. ) ;
#10 = CC_DESIGN_DATE_AND_TIME_ASSIGNMENT ( #2, #22, ( #4 ) ) ;
#11 = CYLINDRICAL_SURFACE ( 'NONE', #19, 5.000000000000000888 ) ;
#12 = EDGE_LOOP ( 'NONE', ( #122 ) ) ;
#13 = CC_DESIGN_PERSON_AND_ORGANIZATION_ASSIGNMENT ( #71, #91, ( #119 ) ) ;
#14 = UNCERTAINTY_MEASURE_WITH_UNIT (LENGTH_MEASURE( 1.000000000000000082E-05 ), #117, 'distance_accuracy_value', 'NONE');
#15 = APPROVAL_PERSON_ORGANIZATION ( #156, #132, #118 ) ;
#16 = DIRECTION ( 'NONE',  ( -4.275831445896958607E-31, -1.000000000000000000, -1.224646799147353207E-16 ) ) ;
#17 = EDGE_CURVE ( 'NONE', #79, #79, #174, .T. ) ;
#18 = EDGE_LOOP ( 'NONE', ( #211 ) ) ;
#19 = AXIS2_PLACEMENT_3D ( 'NONE', #201, #109, #200 ) ;
#20 = DATE_AND_TIME ( #194, #70 ) ;
#21 = CC_DESIGN_PERSON_AND_ORGANIZATION_ASSIGNMENT ( #139, #159, ( #192 ) ) ;
#22 = DATE_TIME_ROLE ( 'creation_date' ) ;
#23 = EDGE_LOOP ( 'NONE', ( #58 ) ) ;
#24 = CIRCLE ( 'NONE', #148, 3.999999999999997335 ) ;
#25 = COORDINATED_UNIVERSAL_TIME_OFFSET ( 1, 0, .AHEAD. ) ;
#26 = FACE_OUTER_BOUND ( 'NONE', #167, .T. ) ;
#27 = DIRECTION ( 'NONE',  ( -3.491481338843133355E-15, 1.224646799147353207E-16, -1.000000000000000000 ) ) ;
#28 = PERSON_AND_ORGANIZATION ( #188, #182 ) ;
#29 = LOCAL_TIME ( 8, 8, 20.00000000000000000, #105 ) ;
#30 = CARTESIAN_POINT ( 'NONE',  ( 6.284666409917640040E-14, -2.204364238465235428E-15, 18.00000000000000000 ) ) ;
#31 = DIRECTION ( 'NONE',  ( 1.000000000000000000, 0.0000000000000000000, -3.491481338843133750E-15 ) ) ;
#32 = AXIS2_PLACEMENT_3D ( 'NONE', #172, #114, #16 ) ;
#33 = ADVANCED_FACE ( 'NONE', ( #158 ), #223, .T. ) ;
#34 = DESIGN_CONTEXT ( 'detailed design', #176, 'design' ) ;
#35 = VERTEX_POINT ( 'NONE', #112 ) ;
#36 = AXIS2_PLACEMENT_3D ( 'NONE', #113, #85, #60 ) ;
#37 = ORIENTED_EDGE ( 'NONE', *, *, #53, .T. ) ;
#38 = PLANE ( 'NONE',  #36 ) ;
#39 =( NAMED_UNIT ( * ) PLANE_ANGLE_UNIT ( ) SI_UNIT ( $, .RADIAN. ) );
#40 = ADVANCED_FACE ( 'NONE', ( #9, #187 ), #125, .T. ) ;
#41 = MECHANICAL_CONTEXT ( 'NONE', #147, 'mechanical' ) ;
#42 = CARTESIAN_POINT ( 'NONE',  ( 6.284666409917640040E-14, -2.204364238465235428E-15, 18.00000000000000000 ) ) ;
#43 = PERSON_AND_ORGANIZATION_ROLE ( 'creator' ) ;
#44 = DIRECTION ( 'NONE',  ( 3.491481338843133355E-15, -1.224646799147353207E-16, 1.000000000000000000 ) ) ;
#45 = APPROVAL_ROLE ( '' ) ;
#46 = CIRCLE ( 'NONE', #204, 4.899999999999999467 ) ;
#47 = CALENDAR_DATE ( 2021, 12, 11 ) ;
#48 = CYLINDRICAL_SURFACE ( 'NONE', #129, 4.999999999999992006 ) ;
#49 = AXIS2_PLACEMENT_3D ( 'NONE', #141, #160, #143 ) ;
#50 = APPROVAL_PERSON_ORGANIZATION ( #137, #216, #45 ) ;
#51 = CARTESIAN_POINT ( 'NONE',  ( -4.731839565957903391E-32, 0.0000000000000000000, -1.355252715606880543E-17 ) ) ;
#52 = PRODUCT_DEFINITION_SHAPE ( 'NONE', 'NONE',  #4 ) ;
#53 = EDGE_CURVE ( 'NONE', #154, #154, #63, .T. ) ;
#54 = CC_DESIGN_PERSON_AND_ORGANIZATION_ASSIGNMENT ( #144, #179, ( #78 ) ) ;
#55 = ORIENTED_EDGE ( 'NONE', *, *, #17, .F. ) ;
#56 = CALENDAR_DATE ( 2021, 12, 11 ) ;
#57 = APPROVAL_STATUS ( 'not_yet_approved' ) ;
#58 = ORIENTED_EDGE ( 'NONE', *, *, #67, .T. ) ;
#59 = APPROVAL_STATUS ( 'not_yet_approved' ) ;
#60 = DIRECTION ( 'NONE',  ( 4.275831445896958607E-31, 1.000000000000000000, 1.224646799147353207E-16 ) ) ;
#61 = CARTESIAN_POINT ( 'NONE',  ( -1.068957861474239564E-30, 3.749399456654644020E-32, -3.061616997868383141E-16 ) ) ;
#62 = CIRCLE ( 'NONE', #80, 4.999999999999984901 ) ;
#63 = CIRCLE ( 'NONE', #7, 5.000000000000000000 ) ;
#64 = CC_DESIGN_APPROVAL ( #132, ( #4 ) ) ;
#65 = CARTESIAN_POINT ( 'NONE',  ( 2.269462870248037060E-13, 4.999999999999976907, 65.00000000000000000 ) ) ;
#66 = AXIS2_PLACEMENT_3D ( 'NONE', #61, #196, #106 ) ;
#67 = EDGE_CURVE ( 'NONE', #218, #218, #189, .T. ) ;
#68 = DATE_TIME_ROLE ( 'classification_date' ) ;
#69 = ORIENTED_EDGE ( 'NONE', *, *, #127, .T. ) ;
#70 = LOCAL_TIME ( 8, 8, 20.00000000000000000, #25 ) ;
#71 = PERSON_AND_ORGANIZATION ( #188, #182 ) ;
#72 = DIRECTION ( 'NONE',  ( 0.0000000000000000000, 0.0000000000000000000, 1.000000000000000000 ) ) ;
#73 = DIRECTION ( 'NONE',  ( 4.275831445896958607E-31, 1.000000000000000000, 1.224646799147353207E-16 ) ) ;
#74 = ADVANCED_BREP_SHAPE_REPRESENTATION ( '56334', ( #75, #146, #94 ), #193 ) ;
#75 = MANIFOLD_SOLID_BREP ( 'Corps-Déplacer/Copier1[1]', #220 ) ;
#76 = CARTESIAN_POINT ( 'NONE',  ( 6.284666409917640040E-14, 4.999999999999998224, 18.00000000000000000 ) ) ;
#77 = CC_DESIGN_SECURITY_CLASSIFICATION ( #119, ( #192 ) ) ;
#78 = PRODUCT ( '56334', '56334', '', ( #41 ) ) ;
#79 = VERTEX_POINT ( 'NONE', #76 ) ;
#80 = AXIS2_PLACEMENT_3D ( 'NONE', #163, #126, #108 ) ;
#81 = DATE_AND_TIME ( #56, #184 ) ;
#82 = APPLICATION_PROTOCOL_DEFINITION ( 'international standard', 'config_control_design', 1994, #176 ) ;
#83 = EDGE_LOOP ( 'NONE', ( #190 ) ) ;
#84 = EDGE_CURVE ( 'NONE', #191, #191, #46, .T. ) ;
#85 = DIRECTION ( 'NONE',  ( -3.491481338843133355E-15, 1.224646799147353207E-16, -1.000000000000000000 ) ) ;
#86 = AXIS2_PLACEMENT_3D ( 'NONE', #30, #95, #128 ) ;
#87 = EDGE_LOOP ( 'NONE', ( #133 ) ) ;
#88 = LOCAL_TIME ( 8, 8, 20.00000000000000000, #100 ) ;
#89 = SHAPE_DEFINITION_REPRESENTATION ( #52, #74 ) ;
#90 = DIRECTION ( 'NONE',  ( 0.0000000000000000000, 1.000000000000000000, 0.0000000000000000000 ) ) ;
#91 = PERSON_AND_ORGANIZATION_ROLE ( 'classification_officer' ) ;
#92 = CC_DESIGN_PERSON_AND_ORGANIZATION_ASSIGNMENT ( #28, #43, ( #4 ) ) ;
#93 = FACE_OUTER_BOUND ( 'NONE', #131, .T. ) ;
#94 = AXIS2_PLACEMENT_3D ( 'NONE', #183, #72, #177 ) ;
#95 = DIRECTION ( 'NONE',  ( -3.491481338843133355E-15, 1.224646799147353207E-16, -1.000000000000000000 ) ) ;
#96 = FACE_OUTER_BOUND ( 'NONE', #161, .T. ) ;
#97 = ADVANCED_FACE ( 'NONE', ( #96, #168 ), #11, .T. ) ;
#98 = EDGE_LOOP ( 'NONE', ( #37 ) ) ;
#99 = FACE_BOUND ( 'NONE', #18, .T. ) ;
#100 = COORDINATED_UNIVERSAL_TIME_OFFSET ( 1, 0, .AHEAD. ) ;
#101 = CARTESIAN_POINT ( 'NONE',  ( 6.284666409917640040E-14, 3.749399456654640735E-32, 18.00000000000000000 ) ) ;
#102 = EDGE_CURVE ( 'NONE', #35, #35, #24, .T. ) ;
#103 = DIRECTION ( 'NONE',  ( -4.275831445896958607E-31, -1.000000000000000000, -1.224646799147353207E-16 ) ) ;
#104 = CONICAL_SURFACE ( 'NONE', #49, 5.000000000000000000, 0.7853981633974495002 ) ;
#105 = COORDINATED_UNIVERSAL_TIME_OFFSET ( 1, 0, .AHEAD. ) ;
#106 = DIRECTION ( 'NONE',  ( 4.275831445896958607E-31, 1.000000000000000000, 1.224646799147353207E-16 ) ) ;
#107 = APPROVAL ( #57, 'UNSPECIFIED' ) ;
#108 = DIRECTION ( 'NONE',  ( 0.0000000000000000000, 1.000000000000000000, 0.0000000000000000000 ) ) ;
#109 = DIRECTION ( 'NONE',  ( -3.491481338843133355E-15, 1.224646799147353207E-16, -1.000000000000000000 ) ) ;
#110 = FACE_OUTER_BOUND ( 'NONE', #23, .T. ) ;
#111 = DIRECTION ( 'NONE',  ( 3.491481338843133355E-15, -0.0000000000000000000, 1.000000000000000000 ) ) ;
#112 = CARTESIAN_POINT ( 'NONE',  ( 2.304377683636467762E-13, 3.999999999999989786, 65.99999999999998579 ) ) ;
#113 = CARTESIAN_POINT ( 'NONE',  ( 2.304377683636468267E-13, 2.999519565323701531E-32, 66.00000000000000000 ) ) ;
#114 = DIRECTION ( 'NONE',  ( 3.491481338843133355E-15, -1.224646799147353207E-16, 1.000000000000000000 ) ) ;
#115 = AXIS2_PLACEMENT_3D ( 'NONE', #42, #178, #208 ) ;
#116 = CALENDAR_DATE ( 2021, 12, 11 ) ;
#117 =( LENGTH_UNIT ( ) NAMED_UNIT ( * ) SI_UNIT ( .MILLI., .METRE. ) );
#118 = APPROVAL_ROLE ( '' ) ;
#119 = SECURITY_CLASSIFICATION ( '', '', #207 ) ;
#120 = CC_DESIGN_DATE_AND_TIME_ASSIGNMENT ( #164, #68, ( #119 ) ) ;
#121 = APPROVAL_DATE_TIME ( #20, #107 ) ;
#122 = ORIENTED_EDGE ( 'NONE', *, *, #53, .F. ) ;
#123 = PERSON_AND_ORGANIZATION ( #188, #182 ) ;
#124 = APPROVAL_STATUS ( 'not_yet_approved' ) ;
#125 = CONICAL_SURFACE ( 'NONE', #202, 4.999999999999984901, 0.7853981633974482790 ) ;
#126 = DIRECTION ( 'NONE',  ( -3.491481338843133355E-15, 1.224646799147353207E-16, -1.000000000000000000 ) ) ;
#127 = EDGE_CURVE ( 'NONE', #153, #153, #62, .T. ) ;
#128 = DIRECTION ( 'NONE',  ( 0.0000000000000000000, 1.000000000000000000, 0.0000000000000000000 ) ) ;
#129 = AXIS2_PLACEMENT_3D ( 'NONE', #165, #6, #73 ) ;
#130 = CARTESIAN_POINT ( 'NONE',  ( 2.269462870248037060E-13, -7.960204194457797252E-15, 65.00000000000000000 ) ) ;
#131 = EDGE_LOOP ( 'NONE', ( #222 ) ) ;
#132 = APPROVAL ( #124, 'UNSPECIFIED' ) ;
#133 = ORIENTED_EDGE ( 'NONE', *, *, #102, .F. ) ;
#134 = CC_DESIGN_APPROVAL ( #216, ( #119 ) ) ;
#135 = CARTESIAN_POINT ( 'NONE',  ( 5.000000000000000000, 0.0000000000000000000, 0.09999999999998254729 ) ) ;
#136 = EDGE_LOOP ( 'NONE', ( #152 ) ) ;
#137 = PERSON_AND_ORGANIZATION ( #188, #182 ) ;
#138 = EDGE_LOOP ( 'NONE', ( #55 ) ) ;
#139 = PERSON_AND_ORGANIZATION ( #188, #182 ) ;
#140 = ORIENTED_EDGE ( 'NONE', *, *, #17, .T. ) ;
#141 = CARTESIAN_POINT ( 'NONE',  ( 3.491481338843133355E-16, 0.0000000000000000000, 0.1000000000000000056 ) ) ;
#142 = CC_DESIGN_APPROVAL ( #107, ( #192 ) ) ;
#143 = DIRECTION ( 'NONE',  ( 1.000000000000000000, 0.0000000000000000000, -3.491130995403324278E-15 ) ) ;
#144 = PERSON_AND_ORGANIZATION ( #188, #182 ) ;
#145 = FACE_OUTER_BOUND ( 'NONE', #87, .T. ) ;
#146 = MANIFOLD_SOLID_BREP ( 'Corps-Déplacer/Copier1[2]', #170 ) ;
#147 = APPLICATION_CONTEXT ( 'configuration controlled 3d designs of mechanical parts and assemblies' ) ;
#148 = AXIS2_PLACEMENT_3D ( 'NONE', #213, #27, #90 ) ;
#149 = CC_DESIGN_PERSON_AND_ORGANIZATION_ASSIGNMENT ( #198, #206, ( #192 ) ) ;
#150 = CARTESIAN_POINT ( 'NONE',  ( 4.899999999999999467, 0.0000000000000000000, -1.712181108748742225E-14 ) ) ;
#151 = APPROVAL_PERSON_ORGANIZATION ( #123, #107, #181 ) ;
#152 = ORIENTED_EDGE ( 'NONE', *, *, #127, .F. ) ;
#153 = VERTEX_POINT ( 'NONE', #65 ) ;
#154 = VERTEX_POINT ( 'NONE', #135 ) ;
#155 = COORDINATED_UNIVERSAL_TIME_OFFSET ( 1, 0, .AHEAD. ) ;
#156 = PERSON_AND_ORGANIZATION ( #188, #182 ) ;
#157 = FACE_OUTER_BOUND ( 'NONE', #12, .T. ) ;
#158 = FACE_OUTER_BOUND ( 'NONE', #138, .T. ) ;
#159 = PERSON_AND_ORGANIZATION_ROLE ( 'design_supplier' ) ;
#160 = DIRECTION ( 'NONE',  ( 3.491481338843133355E-15, -0.0000000000000000000, 1.000000000000000000 ) ) ;
#161 = EDGE_LOOP ( 'NONE', ( #140 ) ) ;
#162 = PLANE ( 'NONE',  #66 ) ;
#163 = CARTESIAN_POINT ( 'NONE',  ( 2.269462870248037060E-13, -7.960204194457797252E-15, 65.00000000000000000 ) ) ;
#164 = DATE_AND_TIME ( #47, #8 ) ;
#165 = CARTESIAN_POINT ( 'NONE',  ( 0.0000000000000000000, 0.0000000000000000000, 0.0000000000000000000 ) ) ;
#166 = ADVANCED_FACE ( 'NONE', ( #5, #93 ), #48, .T. ) ;
#167 = EDGE_LOOP ( 'NONE', ( #219 ) ) ;
#168 = FACE_OUTER_BOUND ( 'NONE', #98, .T. ) ;
#169 = ADVANCED_FACE ( 'NONE', ( #145 ), #38, .F. ) ;
#170 = CLOSED_SHELL ( 'NONE', ( #97, #33, #210, #173 ) ) ;
#171 = PLANE ( 'NONE',  #32 ) ;
#172 = CARTESIAN_POINT ( 'NONE',  ( 6.284666409917640040E-14, 3.749399456654640735E-32, 18.00000000000000000 ) ) ;
#173 = ADVANCED_FACE ( 'NONE', ( #26 ), #162, .T. ) ;
#174 = CIRCLE ( 'NONE', #115, 5.000000000000000888 ) ;
#175 = DATE_AND_TIME ( #116, #29 ) ;
#176 = APPLICATION_CONTEXT ( 'configuration controlled 3d designs of mechanical parts and assemblies' ) ;
#177 = DIRECTION ( 'NONE',  ( 1.000000000000000000, 0.0000000000000000000, 0.0000000000000000000 ) ) ;
#178 = DIRECTION ( 'NONE',  ( -3.491481338843133355E-15, 1.224646799147353207E-16, -1.000000000000000000 ) ) ;
#179 = PERSON_AND_ORGANIZATION_ROLE ( 'design_owner' ) ;
#180 = EDGE_LOOP ( 'NONE', ( #69 ) ) ;
#181 = APPROVAL_ROLE ( '' ) ;
#182 = ORGANIZATION ( 'UNSPECIFIED', 'UNSPECIFIED', '' ) ;
#183 = CARTESIAN_POINT ( 'NONE',  ( 0.0000000000000000000, 0.0000000000000000000, 0.0000000000000000000 ) ) ;
#184 = LOCAL_TIME ( 8, 8, 20.00000000000000000, #155 ) ;
#185 = DIRECTION ( 'NONE',  ( 1.000000000000000000, 0.0000000000000000000, -3.491130995403324278E-15 ) ) ;
#186 = DIRECTION ( 'NONE',  ( -3.491481338843133355E-15, 1.224646799147353207E-16, -1.000000000000000000 ) ) ;
#187 = FACE_OUTER_BOUND ( 'NONE', #136, .T. ) ;
#188 = PERSON ( 'UNSPECIFIED', 'UNSPECIFIED', 'UNSPECIFIED', ('UNSPECIFIED'), ('UNSPECIFIED'), ('UNSPECIFIED') ) ;
#189 = CIRCLE ( 'NONE', #86, 5.000000000000000888 ) ;
#190 = ORIENTED_EDGE ( 'NONE', *, *, #102, .T. ) ;
#191 = VERTEX_POINT ( 'NONE', #150 ) ;
#192 = PRODUCT_DEFINITION_FORMATION_WITH_SPECIFIED_SOURCE ( 'ANY', '', #78, .NOT_KNOWN. ) ;
#193 =( GEOMETRIC_REPRESENTATION_CONTEXT ( 3 ) GLOBAL_UNCERTAINTY_ASSIGNED_CONTEXT ( ( #14 ) ) GLOBAL_UNIT_ASSIGNED_CONTEXT ( ( #117, #39, #195 ) ) REPRESENTATION_CONTEXT ( 'NONE', 'WORKASPACE' ) );
#194 = CALENDAR_DATE ( 2021, 12, 11 ) ;
#195 =( NAMED_UNIT ( * ) SI_UNIT ( $, .STERADIAN. ) SOLID_ANGLE_UNIT ( ) );
#196 = DIRECTION ( 'NONE',  ( -3.491481338843133355E-15, 1.224646799147353207E-16, -1.000000000000000000 ) ) ;
#197 = PRODUCT_RELATED_PRODUCT_CATEGORY ( 'detail', '', ( #78 ) ) ;
#198 = PERSON_AND_ORGANIZATION ( #188, #182 ) ;
#199 = APPROVAL_DATE_TIME ( #175, #132 ) ;
#200 = DIRECTION ( 'NONE',  ( 4.275831445896958607E-31, 1.000000000000000000, 1.224646799147353207E-16 ) ) ;
#201 = CARTESIAN_POINT ( 'NONE',  ( 0.0000000000000000000, 0.0000000000000000000, 0.0000000000000000000 ) ) ;
#202 = AXIS2_PLACEMENT_3D ( 'NONE', #130, #186, #203 ) ;
#203 = DIRECTION ( 'NONE',  ( 0.0000000000000000000, 1.000000000000000000, 0.0000000000000000000 ) ) ;
#204 = AXIS2_PLACEMENT_3D ( 'NONE', #51, #111, #31 ) ;
#205 = CARTESIAN_POINT ( 'NONE',  ( 6.284666409917640040E-14, 4.999999999999998224, 18.00000000000000000 ) ) ;
#206 = PERSON_AND_ORGANIZATION_ROLE ( 'creator' ) ;
#207 = SECURITY_CLASSIFICATION_LEVEL ( 'unclassified' ) ;
#208 = DIRECTION ( 'NONE',  ( 0.0000000000000000000, 1.000000000000000000, 0.0000000000000000000 ) ) ;
#209 = CALENDAR_DATE ( 2021, 12, 11 ) ;
#210 = ADVANCED_FACE ( 'NONE', ( #99, #157 ), #104, .T. ) ;
#211 = ORIENTED_EDGE ( 'NONE', *, *, #84, .T. ) ;
#212 = APPLICATION_PROTOCOL_DEFINITION ( 'international standard', 'config_control_design', 1994, #147 ) ;
#213 = CARTESIAN_POINT ( 'NONE',  ( 2.304377683636467762E-13, -8.082668874372530822E-15, 65.99999999999998579 ) ) ;
#214 = ADVANCED_FACE ( 'NONE', ( #110 ), #171, .F. ) ;
#215 = CARTESIAN_POINT ( 'NONE',  ( 3.491481338843133355E-16, 0.0000000000000000000, 0.1000000000000000056 ) ) ;
#216 = APPROVAL ( #59, 'UNSPECIFIED' ) ;
#217 = DIRECTION ( 'NONE',  ( 3.491481338843133355E-15, -0.0000000000000000000, 1.000000000000000000 ) ) ;
#218 = VERTEX_POINT ( 'NONE', #205 ) ;
#219 = ORIENTED_EDGE ( 'NONE', *, *, #84, .F. ) ;
#220 = CLOSED_SHELL ( 'NONE', ( #214, #166, #40, #169 ) ) ;
#221 = APPROVAL_DATE_TIME ( #81, #216 ) ;
#222 = ORIENTED_EDGE ( 'NONE', *, *, #67, .F. ) ;
#223 = PLANE ( 'NONE',  #1 ) ;
ENDSEC;
END-ISO-10303-21;
