ISO-10303-21;
HEADER;
FILE_DESCRIPTION (( 'STEP AP203' ),
    '1' );
FILE_NAME ('56322.step',
    '2021-11-12T08:05:46',
    ( '' ),
    ( '' ),
    'SwSTEP 2.0',
    'SolidWorks 2019',
    '' );
FILE_SCHEMA (( 'CONFIG_CONTROL_DESIGN' ));
ENDSEC;

DATA;
#1 = CYLINDRICAL_SURFACE ( 'NONE', #181, 2.499999999999999556 ) ;
#2 = EDGE_LOOP ( 'NONE', ( #208 ) ) ;
#3 = FACE_OUTER_BOUND ( 'NONE', #20, .T. ) ;
#4 = ORIENTED_EDGE ( 'NONE', *, *, #37, .T. ) ;
#5 = AXIS2_PLACEMENT_3D ( 'NONE', #193, #174, #155 ) ;
#6 = PERSON_AND_ORGANIZATION ( #77, #8 ) ;
#7 = ADVANCED_FACE ( 'NONE', ( #3, #72 ), #107, .T. ) ;
#8 = ORGANIZATION ( 'UNSPECIFIED', 'UNSPECIFIED', '' ) ;
#9 = CC_DESIGN_PERSON_AND_ORGANIZATION_ASSIGNMENT ( #10, #82, ( #18 ) ) ;
#10 = PERSON_AND_ORGANIZATION ( #77, #8 ) ;
#11 = PLANE ( 'NONE',  #53 ) ;
#12 = CARTESIAN_POINT ( 'NONE',  ( 6.284666409917640040E-14, 2.499999999999997335, 18.00000000000000000 ) ) ;
#13 = PERSON_AND_ORGANIZATION_ROLE ( 'creator' ) ;
#14 = DIRECTION ( 'NONE',  ( 0.0000000000000000000, 1.000000000000000000, 0.0000000000000000000 ) ) ;
#15 = VERTEX_POINT ( 'NONE', #12 ) ;
#16 = ADVANCED_FACE ( 'NONE', ( #211, #74 ), #1, .T. ) ;
#17 = CARTESIAN_POINT ( 'NONE',  ( 2.094888803305880013E-13, -7.347880794884118356E-15, 60.00000000000000000 ) ) ;
#18 = PRODUCT_DEFINITION_FORMATION_WITH_SPECIFIED_SOURCE ( 'ANY', '', #26, .NOT_KNOWN. ) ;
#19 = EDGE_LOOP ( 'NONE', ( #191 ) ) ;
#20 = EDGE_LOOP ( 'NONE', ( #4 ) ) ;
#21 = ORIENTED_EDGE ( 'NONE', *, *, #210, .F. ) ;
#22 = AXIS2_PLACEMENT_3D ( 'NONE', #146, #84, #95 ) ;
#23 = CALENDAR_DATE ( 2021, 12, 11 ) ;
#24 = APPROVAL_STATUS ( 'not_yet_approved' ) ;
#25 = COORDINATED_UNIVERSAL_TIME_OFFSET ( 1, 0, .AHEAD. ) ;
#26 = PRODUCT ( '56322', '56322', '', ( #198 ) ) ;
#27 = ADVANCED_FACE ( 'NONE', ( #213 ), #60, .T. ) ;
#28 = ADVANCED_BREP_SHAPE_REPRESENTATION ( '56322', ( #144, #71, #176 ), #54 ) ;
#29 = PERSON_AND_ORGANIZATION ( #77, #8 ) ;
#30 = SECURITY_CLASSIFICATION_LEVEL ( 'unclassified' ) ;
#31 = DIRECTION ( 'NONE',  ( -4.275831445896958607E-31, -1.000000000000000000, -1.224646799147353207E-16 ) ) ;
#32 = APPROVAL_ROLE ( '' ) ;
#33 = DIRECTION ( 'NONE',  ( -3.491481338843133355E-15, 1.224646799147353207E-16, -1.000000000000000000 ) ) ;
#34 = AXIS2_PLACEMENT_3D ( 'NONE', #83, #49, #189 ) ;
#35 = CALENDAR_DATE ( 2021, 12, 11 ) ;
#36 = DIRECTION ( 'NONE',  ( 3.491481338843133355E-15, -1.224646799147353207E-16, 1.000000000000000000 ) ) ;
#37 = EDGE_CURVE ( 'NONE', #88, #88, #41, .T. ) ;
#38 = DIRECTION ( 'NONE',  ( -3.491481338843133355E-15, 1.224646799147353207E-16, -1.000000000000000000 ) ) ;
#39 = LOCAL_TIME ( 9, 5, 46.00000000000000000, #110 ) ;
#40 = DIRECTION ( 'NONE',  ( 4.275831445896958607E-31, 1.000000000000000000, 1.224646799147353207E-16 ) ) ;
#41 = CIRCLE ( 'NONE', #92, 2.499999999999995559 ) ;
#42 = EDGE_LOOP ( 'NONE', ( #124 ) ) ;
#43 = CC_DESIGN_APPROVAL ( #55, ( #156 ) ) ;
#44 = PERSON_AND_ORGANIZATION ( #77, #8 ) ;
#45 = UNCERTAINTY_MEASURE_WITH_UNIT (LENGTH_MEASURE( 1.000000000000000082E-05 ), #207, 'distance_accuracy_value', 'NONE');
#46 = CIRCLE ( 'NONE', #161, 2.499999999999999556 ) ;
#47 = CALENDAR_DATE ( 2021, 12, 11 ) ;
#48 = DIRECTION ( 'NONE',  ( -4.275831445896958607E-31, -1.000000000000000000, -1.224646799147353207E-16 ) ) ;
#49 = DIRECTION ( 'NONE',  ( -3.491481338843133355E-15, 1.224646799147353207E-16, -1.000000000000000000 ) ) ;
#50 = PERSON_AND_ORGANIZATION_ROLE ( 'design_owner' ) ;
#51 = CC_DESIGN_PERSON_AND_ORGANIZATION_ASSIGNMENT ( #66, #145, ( #18 ) ) ;
#52 = VERTEX_POINT ( 'NONE', #188 ) ;
#53 = AXIS2_PLACEMENT_3D ( 'NONE', #65, #186, #40 ) ;
#54 =( GEOMETRIC_REPRESENTATION_CONTEXT ( 3 ) GLOBAL_UNCERTAINTY_ASSIGNED_CONTEXT ( ( #45 ) ) GLOBAL_UNIT_ASSIGNED_CONTEXT ( ( #207, #187, #202 ) ) REPRESENTATION_CONTEXT ( 'NONE', 'WORKASPACE' ) );
#55 = APPROVAL ( #24, 'UNSPECIFIED' ) ;
#56 = DIRECTION ( 'NONE',  ( 0.0000000000000000000, 1.000000000000000000, 0.0000000000000000000 ) ) ;
#57 = ORIENTED_EDGE ( 'NONE', *, *, #73, .F. ) ;
#58 = CARTESIAN_POINT ( 'NONE',  ( 0.0000000000000000000, 0.0000000000000000000, 0.0000000000000000000 ) ) ;
#59 = SHAPE_DEFINITION_REPRESENTATION ( #85, #28 ) ;
#60 = PLANE ( 'NONE',  #179 ) ;
#61 = ADVANCED_FACE ( 'NONE', ( #135 ), #120, .F. ) ;
#62 = DATE_TIME_ROLE ( 'classification_date' ) ;
#63 = CLOSED_SHELL ( 'NONE', ( #199, #112, #16, #27 ) ) ;
#64 = COORDINATED_UNIVERSAL_TIME_OFFSET ( 1, 0, .AHEAD. ) ;
#65 = CARTESIAN_POINT ( 'NONE',  ( 2.094888803305880013E-13, 1.499759782661845565E-32, 60.00000000000000000 ) ) ;
#66 = PERSON_AND_ORGANIZATION ( #77, #8 ) ;
#67 = DIRECTION ( 'NONE',  ( -3.491481338843133355E-15, 1.224646799147353207E-16, -1.000000000000000000 ) ) ;
#68 = CARTESIAN_POINT ( 'NONE',  ( 6.284666409917640040E-14, 1.874699728327318726E-32, 18.00000000000000000 ) ) ;
#69 = FACE_OUTER_BOUND ( 'NONE', #157, .T. ) ;
#70 = ORIENTED_EDGE ( 'NONE', *, *, #194, .T. ) ;
#71 = MANIFOLD_SOLID_BREP ( 'Corps-Déplacer/Copier1[2]', #63 ) ;
#72 = FACE_OUTER_BOUND ( 'NONE', #2, .T. ) ;
#73 = EDGE_CURVE ( 'NONE', #153, #153, #129, .T. ) ;
#74 = FACE_OUTER_BOUND ( 'NONE', #142, .T. ) ;
#75 = PRODUCT_RELATED_PRODUCT_CATEGORY ( 'detail', '', ( #26 ) ) ;
#76 = AXIS2_PLACEMENT_3D ( 'NONE', #184, #67, #56 ) ;
#77 = PERSON ( 'UNSPECIFIED', 'UNSPECIFIED', 'UNSPECIFIED', ('UNSPECIFIED'), ('UNSPECIFIED'), ('UNSPECIFIED') ) ;
#78 = APPROVAL_PERSON_ORGANIZATION ( #80, #150, #32 ) ;
#79 = CIRCLE ( 'NONE', #132, 1.999999999999998668 ) ;
#80 = PERSON_AND_ORGANIZATION ( #77, #8 ) ;
#81 = FACE_BOUND ( 'NONE', #42, .T. ) ;
#82 = PERSON_AND_ORGANIZATION_ROLE ( 'design_supplier' ) ;
#83 = CARTESIAN_POINT ( 'NONE',  ( 5.237222008264689186E-16, -1.836970198721026051E-17, 0.1499999999999996891 ) ) ;
#84 = DIRECTION ( 'NONE',  ( -3.491481338843133355E-15, 1.224646799147353207E-16, -1.000000000000000000 ) ) ;
#85 = PRODUCT_DEFINITION_SHAPE ( 'NONE', 'NONE',  #160 ) ;
#86 = DATE_TIME_ROLE ( 'creation_date' ) ;
#87 = VERTEX_POINT ( 'NONE', #151 ) ;
#88 = VERTEX_POINT ( 'NONE', #172 ) ;
#89 = ORIENTED_EDGE ( 'NONE', *, *, #168, .F. ) ;
#90 = ORIENTED_EDGE ( 'NONE', *, *, #216, .T. ) ;
#91 = CC_DESIGN_DATE_AND_TIME_ASSIGNMENT ( #100, #86, ( #160 ) ) ;
#92 = AXIS2_PLACEMENT_3D ( 'NONE', #99, #223, #220 ) ;
#93 = CC_DESIGN_PERSON_AND_ORGANIZATION_ASSIGNMENT ( #44, #50, ( #26 ) ) ;
#94 = APPROVAL_ROLE ( '' ) ;
#95 = DIRECTION ( 'NONE',  ( 4.275831445896958607E-31, 1.000000000000000000, 1.224646799147352961E-16 ) ) ;
#96 = APPROVAL_PERSON_ORGANIZATION ( #6, #55, #127 ) ;
#97 = CARTESIAN_POINT ( 'NONE',  ( 0.0000000000000000000, 0.0000000000000000000, 0.0000000000000000000 ) ) ;
#98 = AXIS2_PLACEMENT_3D ( 'NONE', #68, #203, #31 ) ;
#99 = CARTESIAN_POINT ( 'NONE',  ( 2.077431396611664157E-13, -7.286648454926750781E-15, 59.50000000000000000 ) ) ;
#100 = DATE_AND_TIME ( #35, #114 ) ;
#101 = VERTEX_POINT ( 'NONE', #169 ) ;
#102 = FACE_OUTER_BOUND ( 'NONE', #19, .T. ) ;
#103 = CC_DESIGN_APPROVAL ( #150, ( #18 ) ) ;
#104 = DIRECTION ( 'NONE',  ( -3.491481338843133355E-15, 1.224646799147353207E-16, -1.000000000000000000 ) ) ;
#105 = CLOSED_SHELL ( 'NONE', ( #61, #7, #177, #137 ) ) ;
#106 = AXIS2_PLACEMENT_3D ( 'NONE', #167, #104, #14 ) ;
#107 = CYLINDRICAL_SURFACE ( 'NONE', #5, 2.499999999999997780 ) ;
#108 = ORIENTED_EDGE ( 'NONE', *, *, #210, .T. ) ;
#109 = DIRECTION ( 'NONE',  ( -3.491481338843133355E-15, 1.224646799147353207E-16, -1.000000000000000000 ) ) ;
#110 = COORDINATED_UNIVERSAL_TIME_OFFSET ( 1, 0, .AHEAD. ) ;
#111 = AXIS2_PLACEMENT_3D ( 'NONE', #222, #38, #115 ) ;
#112 = ADVANCED_FACE ( 'NONE', ( #139, #81 ), #215, .T. ) ;
#113 = LOCAL_TIME ( 9, 5, 46.00000000000000000, #183 ) ;
#114 = LOCAL_TIME ( 9, 5, 46.00000000000000000, #64 ) ;
#115 = DIRECTION ( 'NONE',  ( 4.275831445896958607E-31, 1.000000000000000000, 1.224646799147353207E-16 ) ) ;
#116 = PERSON_AND_ORGANIZATION ( #77, #8 ) ;
#117 = CC_DESIGN_SECURITY_CLASSIFICATION ( #156, ( #18 ) ) ;
#118 = DIRECTION ( 'NONE',  ( 0.0000000000000000000, 0.0000000000000000000, 1.000000000000000000 ) ) ;
#119 = CIRCLE ( 'NONE', #22, 2.350000000000000089 ) ;
#120 = PLANE ( 'NONE',  #98 ) ;
#121 = CARTESIAN_POINT ( 'NONE',  ( 6.284666409917640040E-14, -2.204364238465235428E-15, 18.00000000000000000 ) ) ;
#122 = APPROVAL ( #204, 'UNSPECIFIED' ) ;
#123 = DIRECTION ( 'NONE',  ( 0.0000000000000000000, 1.000000000000000000, 0.0000000000000000000 ) ) ;
#124 = ORIENTED_EDGE ( 'NONE', *, *, #194, .F. ) ;
#125 = EDGE_LOOP ( 'NONE', ( #70 ) ) ;
#126 = EDGE_LOOP ( 'NONE', ( #108 ) ) ;
#127 = APPROVAL_ROLE ( '' ) ;
#128 = CONICAL_SURFACE ( 'NONE', #106, 2.499999999999995559, 0.7853981633974447263 ) ;
#129 = CIRCLE ( 'NONE', #34, 2.500000000000000000 ) ;
#130 = CC_DESIGN_PERSON_AND_ORGANIZATION_ASSIGNMENT ( #116, #13, ( #160 ) ) ;
#131 = APPROVAL_DATE_TIME ( #166, #122 ) ;
#132 = AXIS2_PLACEMENT_3D ( 'NONE', #17, #33, #123 ) ;
#133 = PLANE ( 'NONE',  #111 ) ;
#134 = COORDINATED_UNIVERSAL_TIME_OFFSET ( 1, 0, .AHEAD. ) ;
#135 = FACE_OUTER_BOUND ( 'NONE', #154, .T. ) ;
#136 = CARTESIAN_POINT ( 'NONE',  ( -1.004820389785785246E-30, 3.524435489255365378E-32, -2.877919977996279827E-16 ) ) ;
#137 = ADVANCED_FACE ( 'NONE', ( #69 ), #11, .F. ) ;
#138 = APPROVAL_PERSON_ORGANIZATION ( #29, #122, #94 ) ;
#139 = FACE_OUTER_BOUND ( 'NONE', #141, .T. ) ;
#140 = APPLICATION_CONTEXT ( 'configuration controlled 3d designs of mechanical parts and assemblies' ) ;
#141 = EDGE_LOOP ( 'NONE', ( #159 ) ) ;
#142 = EDGE_LOOP ( 'NONE', ( #57 ) ) ;
#143 = DIRECTION ( 'NONE',  ( 4.275831445896958607E-31, 1.000000000000000000, 1.224646799147353207E-16 ) ) ;
#144 = MANIFOLD_SOLID_BREP ( 'Corps-Déplacer/Copier1[1]', #105 ) ;
#145 = PERSON_AND_ORGANIZATION_ROLE ( 'creator' ) ;
#146 = CARTESIAN_POINT ( 'NONE',  ( -1.004820389785785246E-30, 3.524435489255365378E-32, -2.877919977996279827E-16 ) ) ;
#147 = APPROVAL_DATE_TIME ( #221, #150 ) ;
#148 = DIRECTION ( 'NONE',  ( 0.0000000000000000000, 1.000000000000000000, 0.0000000000000000000 ) ) ;
#149 = DIRECTION ( 'NONE',  ( 3.491481338843133355E-15, -1.224646799147353207E-16, 1.000000000000000000 ) ) ;
#150 = APPROVAL ( #185, 'UNSPECIFIED' ) ;
#151 = CARTESIAN_POINT ( 'NONE',  ( 6.284666409917640040E-14, 2.499999999999997335, 18.00000000000000000 ) ) ;
#152 = CIRCLE ( 'NONE', #76, 2.499999999999999556 ) ;
#153 = VERTEX_POINT ( 'NONE', #165 ) ;
#154 = EDGE_LOOP ( 'NONE', ( #90 ) ) ;
#155 = DIRECTION ( 'NONE',  ( 4.275831445896959482E-31, 1.000000000000000000, 1.224646799147353454E-16 ) ) ;
#156 = SECURITY_CLASSIFICATION ( '', '', #30 ) ;
#157 = EDGE_LOOP ( 'NONE', ( #89 ) ) ;
#158 = DATE_AND_TIME ( #212, #39 ) ;
#159 = ORIENTED_EDGE ( 'NONE', *, *, #73, .T. ) ;
#160 = PRODUCT_DEFINITION ( 'UNKNOWN', '', #18, #163 ) ;
#161 = AXIS2_PLACEMENT_3D ( 'NONE', #121, #205, #148 ) ;
#162 = PERSON_AND_ORGANIZATION_ROLE ( 'classification_officer' ) ;
#163 = DESIGN_CONTEXT ( 'detailed design', #140, 'design' ) ;
#164 = CALENDAR_DATE ( 2021, 12, 11 ) ;
#165 = CARTESIAN_POINT ( 'NONE',  ( 5.237222008264699047E-16, 2.500000000000000000, 0.1499999999999999944 ) ) ;
#166 = DATE_AND_TIME ( #47, #182 ) ;
#167 = CARTESIAN_POINT ( 'NONE',  ( 2.077431396611664157E-13, -7.286648454926750781E-15, 59.50000000000000000 ) ) ;
#168 = EDGE_CURVE ( 'NONE', #52, #52, #79, .T. ) ;
#169 = CARTESIAN_POINT ( 'NONE',  ( 0.0000000000000000000, 2.350000000000000089, 0.0000000000000000000 ) ) ;
#170 = CC_DESIGN_DATE_AND_TIME_ASSIGNMENT ( #158, #62, ( #156 ) ) ;
#171 = APPLICATION_CONTEXT ( 'configuration controlled 3d designs of mechanical parts and assemblies' ) ;
#172 = CARTESIAN_POINT ( 'NONE',  ( 2.077431396611664157E-13, 2.499999999999988454, 59.50000000000000000 ) ) ;
#173 = EDGE_LOOP ( 'NONE', ( #209 ) ) ;
#174 = DIRECTION ( 'NONE',  ( -3.491481338843133355E-15, 1.224646799147353207E-16, -1.000000000000000000 ) ) ;
#175 = AXIS2_PLACEMENT_3D ( 'NONE', #136, #149, #201 ) ;
#176 = AXIS2_PLACEMENT_3D ( 'NONE', #97, #118, #217 ) ;
#177 = ADVANCED_FACE ( 'NONE', ( #190, #102 ), #128, .T. ) ;
#178 = APPROVAL_DATE_TIME ( #195, #55 ) ;
#179 = AXIS2_PLACEMENT_3D ( 'NONE', #218, #36, #48 ) ;
#180 = APPLICATION_PROTOCOL_DEFINITION ( 'international standard', 'config_control_design', 1994, #140 ) ;
#181 = AXIS2_PLACEMENT_3D ( 'NONE', #58, #109, #143 ) ;
#182 = LOCAL_TIME ( 9, 5, 46.00000000000000000, #134 ) ;
#183 = COORDINATED_UNIVERSAL_TIME_OFFSET ( 1, 0, .AHEAD. ) ;
#184 = CARTESIAN_POINT ( 'NONE',  ( 6.284666409917640040E-14, -2.204364238465235428E-15, 18.00000000000000000 ) ) ;
#185 = APPROVAL_STATUS ( 'not_yet_approved' ) ;
#186 = DIRECTION ( 'NONE',  ( -3.491481338843133355E-15, 1.224646799147353207E-16, -1.000000000000000000 ) ) ;
#187 =( NAMED_UNIT ( * ) PLANE_ANGLE_UNIT ( ) SI_UNIT ( $, .RADIAN. ) );
#188 = CARTESIAN_POINT ( 'NONE',  ( 2.094888803305880013E-13, 1.999999999999991340, 60.00000000000000000 ) ) ;
#189 = DIRECTION ( 'NONE',  ( 4.237045877651918877E-31, 1.000000000000000000, 1.192622389734054877E-16 ) ) ;
#190 = FACE_BOUND ( 'NONE', #173, .T. ) ;
#191 = ORIENTED_EDGE ( 'NONE', *, *, #37, .F. ) ;
#192 = EDGE_LOOP ( 'NONE', ( #21 ) ) ;
#193 = CARTESIAN_POINT ( 'NONE',  ( 0.0000000000000000000, 0.0000000000000000000, 0.0000000000000000000 ) ) ;
#194 = EDGE_CURVE ( 'NONE', #101, #101, #119, .T. ) ;
#195 = DATE_AND_TIME ( #23, #197 ) ;
#196 = CC_DESIGN_PERSON_AND_ORGANIZATION_ASSIGNMENT ( #219, #162, ( #156 ) ) ;
#197 = LOCAL_TIME ( 9, 5, 46.00000000000000000, #25 ) ;
#198 = MECHANICAL_CONTEXT ( 'NONE', #171, 'mechanical' ) ;
#199 = ADVANCED_FACE ( 'NONE', ( #206 ), #133, .T. ) ;
#200 = APPLICATION_PROTOCOL_DEFINITION ( 'international standard', 'config_control_design', 1994, #171 ) ;
#201 = DIRECTION ( 'NONE',  ( -4.275831445896958607E-31, -1.000000000000000000, -1.224646799147352961E-16 ) ) ;
#202 =( NAMED_UNIT ( * ) SI_UNIT ( $, .STERADIAN. ) SOLID_ANGLE_UNIT ( ) );
#203 = DIRECTION ( 'NONE',  ( 3.491481338843133355E-15, -1.224646799147353207E-16, 1.000000000000000000 ) ) ;
#204 = APPROVAL_STATUS ( 'not_yet_approved' ) ;
#205 = DIRECTION ( 'NONE',  ( -3.491481338843133355E-15, 1.224646799147353207E-16, -1.000000000000000000 ) ) ;
#206 = FACE_OUTER_BOUND ( 'NONE', #125, .T. ) ;
#207 =( LENGTH_UNIT ( ) NAMED_UNIT ( * ) SI_UNIT ( .MILLI., .METRE. ) );
#208 = ORIENTED_EDGE ( 'NONE', *, *, #216, .F. ) ;
#209 = ORIENTED_EDGE ( 'NONE', *, *, #168, .T. ) ;
#210 = EDGE_CURVE ( 'NONE', #15, #15, #152, .T. ) ;
#211 = FACE_OUTER_BOUND ( 'NONE', #126, .T. ) ;
#212 = CALENDAR_DATE ( 2021, 12, 11 ) ;
#213 = FACE_OUTER_BOUND ( 'NONE', #192, .T. ) ;
#214 = CC_DESIGN_APPROVAL ( #122, ( #160 ) ) ;
#215 = CONICAL_SURFACE ( 'NONE', #175, 2.350000000000000089, 0.7853981633974481680 ) ;
#216 = EDGE_CURVE ( 'NONE', #87, #87, #46, .T. ) ;
#217 = DIRECTION ( 'NONE',  ( 1.000000000000000000, 0.0000000000000000000, 0.0000000000000000000 ) ) ;
#218 = CARTESIAN_POINT ( 'NONE',  ( 6.284666409917640040E-14, 1.874699728327318726E-32, 18.00000000000000000 ) ) ;
#219 = PERSON_AND_ORGANIZATION ( #77, #8 ) ;
#220 = DIRECTION ( 'NONE',  ( 0.0000000000000000000, 1.000000000000000000, 0.0000000000000000000 ) ) ;
#221 = DATE_AND_TIME ( #164, #113 ) ;
#222 = CARTESIAN_POINT ( 'NONE',  ( -5.024101948928926231E-31, 1.762217744627682689E-32, -1.438959988998139914E-16 ) ) ;
#223 = DIRECTION ( 'NONE',  ( -3.491481338843133355E-15, 1.224646799147353207E-16, -1.000000000000000000 ) ) ;
ENDSEC;
END-ISO-10303-21;
