ISO-10303-21;
HEADER;
FILE_DESCRIPTION (( 'STEP AP203' ),
    '1' );
FILE_NAME ('56321.step',
    '2021-11-12T08:05:45',
    ( '' ),
    ( '' ),
    'SwSTEP 2.0',
    'SolidWorks 2019',
    '' );
FILE_SCHEMA (( 'CONFIG_CONTROL_DESIGN' ));
ENDSEC;

DATA;
#1 = EDGE_LOOP ( 'NONE', ( #146 ) ) ;
#2 = CC_DESIGN_SECURITY_CLASSIFICATION ( #13, ( #15 ) ) ;
#3 = MANIFOLD_SOLID_BREP ( 'Corps-Déplacer/Copier1[1]', #38 ) ;
#4 = DIRECTION ( 'NONE',  ( 4.275831445896958607E-31, 1.000000000000000000, 1.224646799147353454E-16 ) ) ;
#5 = FACE_OUTER_BOUND ( 'NONE', #19, .T. ) ;
#6 = DIRECTION ( 'NONE',  ( -3.491481338843133355E-15, 1.224646799147353207E-16, -1.000000000000000000 ) ) ;
#7 = ADVANCED_FACE ( 'NONE', ( #21, #130 ), #76, .T. ) ;
#8 = DIRECTION ( 'NONE',  ( -3.491481338843133355E-15, 1.224646799147353207E-16, -1.000000000000000000 ) ) ;
#9 = CIRCLE ( 'NONE', #131, 2.000000000000000888 ) ;
#10 = DIRECTION ( 'NONE',  ( -3.491481338843133355E-15, 1.224646799147353207E-16, -1.000000000000000000 ) ) ;
#11 = APPROVAL_STATUS ( 'not_yet_approved' ) ;
#12 = APPROVAL_DATE_TIME ( #102, #81 ) ;
#13 = SECURITY_CLASSIFICATION ( '', '', #177 ) ;
#14 = EDGE_CURVE ( 'NONE', #168, #168, #23, .T. ) ;
#15 = PRODUCT_DEFINITION_FORMATION_WITH_SPECIFIED_SOURCE ( 'ANY', '', #162, .NOT_KNOWN. ) ;
#16 = ORIENTED_EDGE ( 'NONE', *, *, #155, .T. ) ;
#17 = EDGE_LOOP ( 'NONE', ( #73 ) ) ;
#18 = FACE_BOUND ( 'NONE', #34, .T. ) ;
#19 = EDGE_LOOP ( 'NONE', ( #196 ) ) ;
#20 = AXIS2_PLACEMENT_3D ( 'NONE', #98, #82, #116 ) ;
#21 = FACE_BOUND ( 'NONE', #94, .T. ) ;
#22 = DIRECTION ( 'NONE',  ( -3.491481338843133355E-15, 1.224646799147353207E-16, -1.000000000000000000 ) ) ;
#23 = CIRCLE ( 'NONE', #83, 1.850000000000000089 ) ;
#24 = CYLINDRICAL_SURFACE ( 'NONE', #27, 2.000000000000000000 ) ;
#25 =( NAMED_UNIT ( * ) PLANE_ANGLE_UNIT ( ) SI_UNIT ( $, .RADIAN. ) );
#26 = CARTESIAN_POINT ( 'NONE',  ( 5.586370142149013368E-14, 1.999999999999998224, 16.00000000000000000 ) ) ;
#27 = AXIS2_PLACEMENT_3D ( 'NONE', #186, #170, #43 ) ;
#28 = APPROVAL_STATUS ( 'not_yet_approved' ) ;
#29 = APPROVAL_DATE_TIME ( #143, #149 ) ;
#30 = ADVANCED_FACE ( 'NONE', ( #77 ), #91, .T. ) ;
#31 = PERSON_AND_ORGANIZATION_ROLE ( 'design_supplier' ) ;
#32 = ORIENTED_EDGE ( 'NONE', *, *, #14, .T. ) ;
#33 = ADVANCED_FACE ( 'NONE', ( #212, #18 ), #87, .T. ) ;
#34 = EDGE_LOOP ( 'NONE', ( #78 ) ) ;
#35 = CARTESIAN_POINT ( 'NONE',  ( 1.731774744066194397E-13, -6.074248123770872657E-15, 49.60000000000000853 ) ) ;
#36 = FACE_OUTER_BOUND ( 'NONE', #56, .T. ) ;
#37 = CC_DESIGN_PERSON_AND_ORGANIZATION_ASSIGNMENT ( #208, #67, ( #124 ) ) ;
#38 = CLOSED_SHELL ( 'NONE', ( #215, #89, #7, #142 ) ) ;
#39 = EDGE_LOOP ( 'NONE', ( #90 ) ) ;
#40 = LOCAL_TIME ( 9, 5, 45.00000000000000000, #122 ) ;
#41 = CC_DESIGN_PERSON_AND_ORGANIZATION_ASSIGNMENT ( #70, #31, ( #15 ) ) ;
#42 = FACE_OUTER_BOUND ( 'NONE', #1, .T. ) ;
#43 = DIRECTION ( 'NONE',  ( 4.275831445896958607E-31, 1.000000000000000000, 1.224646799147353207E-16 ) ) ;
#44 = AXIS2_PLACEMENT_3D ( 'NONE', #217, #64, #156 ) ;
#45 = CARTESIAN_POINT ( 'NONE',  ( 5.586370142149013368E-14, 1.999999999999998224, 16.00000000000000000 ) ) ;
#46 = CARTESIAN_POINT ( 'NONE',  ( 5.586370142149013368E-14, -1.959434878635765131E-15, 16.00000000000000000 ) ) ;
#47 = PERSON_AND_ORGANIZATION ( #95, #205 ) ;
#48 = DATE_AND_TIME ( #138, #105 ) ;
#49 = APPROVAL_ROLE ( '' ) ;
#50 = DESIGN_CONTEXT ( 'detailed design', #133, 'design' ) ;
#51 = EDGE_CURVE ( 'NONE', #61, #61, #9, .T. ) ;
#52 = PRODUCT_DEFINITION_SHAPE ( 'NONE', 'NONE',  #124 ) ;
#53 = CARTESIAN_POINT ( 'NONE',  ( 5.586370142149013368E-14, 1.499759782661855418E-32, 16.00000000000000000 ) ) ;
#54 = CIRCLE ( 'NONE', #20, 2.000000000000000000 ) ;
#55 = DIRECTION ( 'NONE',  ( 3.491481338843133355E-15, -1.224646799147353207E-16, 1.000000000000000000 ) ) ;
#56 = EDGE_LOOP ( 'NONE', ( #109 ) ) ;
#57 = EDGE_LOOP ( 'NONE', ( #59 ) ) ;
#58 = LOCAL_TIME ( 9, 5, 45.00000000000000000, #195 ) ;
#59 = ORIENTED_EDGE ( 'NONE', *, *, #51, .T. ) ;
#60 = APPLICATION_PROTOCOL_DEFINITION ( 'international standard', 'config_control_design', 1994, #141 ) ;
#61 = VERTEX_POINT ( 'NONE', #207 ) ;
#62 = CARTESIAN_POINT ( 'NONE',  ( 1.710569414459005214E-46, 1.850000000000000089, 0.0000000000000000000 ) ) ;
#63 = AXIS2_PLACEMENT_3D ( 'NONE', #46, #6, #166 ) ;
#64 = DIRECTION ( 'NONE',  ( 3.491481338843133355E-15, -1.224646799147353207E-16, 1.000000000000000000 ) ) ;
#65 = DATE_AND_TIME ( #69, #187 ) ;
#66 = CC_DESIGN_PERSON_AND_ORGANIZATION_ASSIGNMENT ( #47, #71, ( #15 ) ) ;
#67 = PERSON_AND_ORGANIZATION_ROLE ( 'creator' ) ;
#68 = AXIS2_PLACEMENT_3D ( 'NONE', #200, #55, #128 ) ;
#69 = CALENDAR_DATE ( 2021, 12, 11 ) ;
#70 = PERSON_AND_ORGANIZATION ( #95, #205 ) ;
#71 = PERSON_AND_ORGANIZATION_ROLE ( 'creator' ) ;
#72 = APPROVAL_PERSON_ORGANIZATION ( #159, #139, #86 ) ;
#73 = ORIENTED_EDGE ( 'NONE', *, *, #161, .F. ) ;
#74 = CC_DESIGN_DATE_AND_TIME_ASSIGNMENT ( #48, #126, ( #13 ) ) ;
#75 = EDGE_LOOP ( 'NONE', ( #180 ) ) ;
#76 = CONICAL_SURFACE ( 'NONE', #202, 2.000000000000000888, 0.7853981633974526089 ) ;
#77 = FACE_OUTER_BOUND ( 'NONE', #17, .T. ) ;
#78 = ORIENTED_EDGE ( 'NONE', *, *, #14, .F. ) ;
#79 = ORIENTED_EDGE ( 'NONE', *, *, #155, .F. ) ;
#80 = FACE_OUTER_BOUND ( 'NONE', #39, .T. ) ;
#81 = APPROVAL ( #11, 'UNSPECIFIED' ) ;
#82 = DIRECTION ( 'NONE',  ( -3.491481338843133355E-15, 1.224646799147353207E-16, -1.000000000000000000 ) ) ;
#83 = AXIS2_PLACEMENT_3D ( 'NONE', #92, #164, #211 ) ;
#84 = MANIFOLD_SOLID_BREP ( 'Corps-Déplacer/Copier1[2]', #171 ) ;
#85 = ADVANCED_BREP_SHAPE_REPRESENTATION ( '56321', ( #3, #84, #194 ), #220 ) ;
#86 = APPROVAL_ROLE ( '' ) ;
#87 = CONICAL_SURFACE ( 'NONE', #68, 1.850000000000000089, 0.7853981633974482790 ) ;
#88 = APPLICATION_PROTOCOL_DEFINITION ( 'international standard', 'config_control_design', 1994, #133 ) ;
#89 = ADVANCED_FACE ( 'NONE', ( #129, #36 ), #184, .T. ) ;
#90 = ORIENTED_EDGE ( 'NONE', *, *, #107, .T. ) ;
#91 = PLANE ( 'NONE',  #198 ) ;
#92 = CARTESIAN_POINT ( 'NONE',  ( -7.910288174909372284E-31, 2.774555597924436574E-32, -2.265596578422603100E-16 ) ) ;
#93 = CARTESIAN_POINT ( 'NONE',  ( 0.0000000000000000000, 0.0000000000000000000, 0.0000000000000000000 ) ) ;
#94 = EDGE_LOOP ( 'NONE', ( #16 ) ) ;
#95 = PERSON ( 'UNSPECIFIED', 'UNSPECIFIED', 'UNSPECIFIED', ('UNSPECIFIED'), ('UNSPECIFIED'), ('UNSPECIFIED') ) ;
#96 = DIRECTION ( 'NONE',  ( 4.275831445896958607E-31, 1.000000000000000000, 1.224646799147353207E-16 ) ) ;
#97 = AXIS2_PLACEMENT_3D ( 'NONE', #135, #189, #96 ) ;
#98 = CARTESIAN_POINT ( 'NONE',  ( 5.237222008264691158E-16, -1.836970198721026668E-17, 0.1499999999999997446 ) ) ;
#99 = PLANE ( 'NONE',  #97 ) ;
#100 = DIRECTION ( 'NONE',  ( 0.0000000000000000000, 1.000000000000000000, 0.0000000000000000000 ) ) ;
#101 = CC_DESIGN_APPROVAL ( #81, ( #124 ) ) ;
#102 = DATE_AND_TIME ( #222, #40 ) ;
#103 = COORDINATED_UNIVERSAL_TIME_OFFSET ( 1, 0, .AHEAD. ) ;
#104 = APPROVAL_DATE_TIME ( #190, #139 ) ;
#105 = LOCAL_TIME ( 9, 5, 45.00000000000000000, #137 ) ;
#106 = PERSON_AND_ORGANIZATION_ROLE ( 'classification_officer' ) ;
#107 = EDGE_CURVE ( 'NONE', #173, #173, #176, .T. ) ;
#108 = PERSON_AND_ORGANIZATION ( #95, #205 ) ;
#109 = ORIENTED_EDGE ( 'NONE', *, *, #107, .F. ) ;
#110 = ORIENTED_EDGE ( 'NONE', *, *, #51, .F. ) ;
#111 = AXIS2_PLACEMENT_3D ( 'NONE', #203, #8, #118 ) ;
#112 = DIRECTION ( 'NONE',  ( -3.491481338843133355E-15, 1.224646799147353207E-16, -1.000000000000000000 ) ) ;
#113 = CARTESIAN_POINT ( 'NONE',  ( 5.237222008264699047E-16, 2.000000000000000000, 0.1499999999999999944 ) ) ;
#114 = PLANE ( 'NONE',  #44 ) ;
#115 = APPROVAL_PERSON_ORGANIZATION ( #209, #81, #49 ) ;
#116 = DIRECTION ( 'NONE',  ( 4.333342374871280669E-31, 1.000000000000000000, 1.219727444046192488E-16 ) ) ;
#117 = VERTEX_POINT ( 'NONE', #113 ) ;
#118 = DIRECTION ( 'NONE',  ( 4.275831445896958607E-31, 1.000000000000000000, 1.224646799147353207E-16 ) ) ;
#119 = CC_DESIGN_PERSON_AND_ORGANIZATION_ASSIGNMENT ( #108, #106, ( #13 ) ) ;
#120 = APPROVAL_STATUS ( 'not_yet_approved' ) ;
#121 = DIRECTION ( 'NONE',  ( 1.000000000000000000, 0.0000000000000000000, 0.0000000000000000000 ) ) ;
#122 = COORDINATED_UNIVERSAL_TIME_OFFSET ( 1, 0, .AHEAD. ) ;
#123 = PERSON_AND_ORGANIZATION ( #95, #205 ) ;
#124 = PRODUCT_DEFINITION ( 'UNKNOWN', '', #15, #50 ) ;
#125 = CC_DESIGN_APPROVAL ( #139, ( #13 ) ) ;
#126 = DATE_TIME_ROLE ( 'classification_date' ) ;
#127 = DIRECTION ( 'NONE',  ( 3.491481338843133355E-15, -1.224646799147353207E-16, 1.000000000000000000 ) ) ;
#128 = DIRECTION ( 'NONE',  ( -4.275831445896959482E-31, -1.000000000000000000, -1.224646799147352961E-16 ) ) ;
#129 = FACE_OUTER_BOUND ( 'NONE', #57, .T. ) ;
#130 = FACE_OUTER_BOUND ( 'NONE', #214, .T. ) ;
#131 = AXIS2_PLACEMENT_3D ( 'NONE', #35, #199, #148 ) ;
#132 = DIRECTION ( 'NONE',  ( 0.0000000000000000000, 1.000000000000000000, 0.0000000000000000000 ) ) ;
#133 = APPLICATION_CONTEXT ( 'configuration controlled 3d designs of mechanical parts and assemblies' ) ;
#134 =( LENGTH_UNIT ( ) NAMED_UNIT ( * ) SI_UNIT ( .MILLI., .METRE. ) );
#135 = CARTESIAN_POINT ( 'NONE',  ( -3.955144087454686142E-31, 1.387277798962218287E-32, -1.132798289211301550E-16 ) ) ;
#136 = CARTESIAN_POINT ( 'NONE',  ( 1.745740669421566678E-13, 1.599999999999993872, 50.00000000000000000 ) ) ;
#137 = COORDINATED_UNIVERSAL_TIME_OFFSET ( 1, 0, .AHEAD. ) ;
#138 = CALENDAR_DATE ( 2021, 12, 11 ) ;
#139 = APPROVAL ( #28, 'UNSPECIFIED' ) ;
#140 = DATE_TIME_ROLE ( 'creation_date' ) ;
#141 = APPLICATION_CONTEXT ( 'configuration controlled 3d designs of mechanical parts and assemblies' ) ;
#142 = ADVANCED_FACE ( 'NONE', ( #206 ), #188, .F. ) ;
#143 = DATE_AND_TIME ( #193, #58 ) ;
#144 = AXIS2_PLACEMENT_3D ( 'NONE', #93, #165, #4 ) ;
#145 = UNCERTAINTY_MEASURE_WITH_UNIT (LENGTH_MEASURE( 1.000000000000000082E-05 ), #134, 'distance_accuracy_value', 'NONE');
#146 = ORIENTED_EDGE ( 'NONE', *, *, #161, .T. ) ;
#147 = DIRECTION ( 'NONE',  ( -4.275831445896958607E-31, -1.000000000000000000, -1.224646799147353207E-16 ) ) ;
#148 = DIRECTION ( 'NONE',  ( 0.0000000000000000000, 1.000000000000000000, 0.0000000000000000000 ) ) ;
#149 = APPROVAL ( #120, 'UNSPECIFIED' ) ;
#150 = CARTESIAN_POINT ( 'NONE',  ( 5.586370142149013368E-14, -1.959434878635765131E-15, 16.00000000000000000 ) ) ;
#151 = EDGE_LOOP ( 'NONE', ( #79 ) ) ;
#152 = AXIS2_PLACEMENT_3D ( 'NONE', #150, #10, #100 ) ;
#153 = CARTESIAN_POINT ( 'NONE',  ( 0.0000000000000000000, 0.0000000000000000000, 0.0000000000000000000 ) ) ;
#154 = VERTEX_POINT ( 'NONE', #136 ) ;
#155 = EDGE_CURVE ( 'NONE', #154, #154, #167, .T. ) ;
#156 = DIRECTION ( 'NONE',  ( -4.275831445896958607E-31, -1.000000000000000000, -1.224646799147353207E-16 ) ) ;
#157 = CARTESIAN_POINT ( 'NONE',  ( 1.745740669421566678E-13, -6.123233995736766085E-15, 50.00000000000000000 ) ) ;
#158 = CIRCLE ( 'NONE', #63, 2.000000000000000444 ) ;
#159 = PERSON_AND_ORGANIZATION ( #95, #205 ) ;
#160 = MECHANICAL_CONTEXT ( 'NONE', #141, 'mechanical' ) ;
#161 = EDGE_CURVE ( 'NONE', #219, #219, #158, .T. ) ;
#162 = PRODUCT ( '56321', '56321', '', ( #160 ) ) ;
#163 = DIRECTION ( 'NONE',  ( 0.0000000000000000000, 1.000000000000000000, 0.0000000000000000000 ) ) ;
#164 = DIRECTION ( 'NONE',  ( -3.491481338843133355E-15, 1.224646799147353207E-16, -1.000000000000000000 ) ) ;
#165 = DIRECTION ( 'NONE',  ( -3.491481338843133355E-15, 1.224646799147353207E-16, -1.000000000000000000 ) ) ;
#166 = DIRECTION ( 'NONE',  ( 0.0000000000000000000, 1.000000000000000000, 0.0000000000000000000 ) ) ;
#167 = CIRCLE ( 'NONE', #201, 1.599999999999999867 ) ;
#168 = VERTEX_POINT ( 'NONE', #62 ) ;
#169 = ADVANCED_FACE ( 'NONE', ( #221 ), #99, .T. ) ;
#170 = DIRECTION ( 'NONE',  ( -3.491481338843133355E-15, 1.224646799147353207E-16, -1.000000000000000000 ) ) ;
#171 = CLOSED_SHELL ( 'NONE', ( #169, #33, #179, #30 ) ) ;
#172 = CC_DESIGN_APPROVAL ( #149, ( #15 ) ) ;
#173 = VERTEX_POINT ( 'NONE', #45 ) ;
#174 = COORDINATED_UNIVERSAL_TIME_OFFSET ( 1, 0, .AHEAD. ) ;
#175 = SHAPE_DEFINITION_REPRESENTATION ( #52, #85 ) ;
#176 = CIRCLE ( 'NONE', #152, 2.000000000000000444 ) ;
#177 = SECURITY_CLASSIFICATION_LEVEL ( 'unclassified' ) ;
#178 = CALENDAR_DATE ( 2021, 12, 11 ) ;
#179 = ADVANCED_FACE ( 'NONE', ( #42, #5 ), #24, .T. ) ;
#180 = ORIENTED_EDGE ( 'NONE', *, *, #218, .T. ) ;
#181 = LOCAL_TIME ( 9, 5, 45.00000000000000000, #103 ) ;
#182 = EDGE_LOOP ( 'NONE', ( #32 ) ) ;
#183 = CC_DESIGN_PERSON_AND_ORGANIZATION_ASSIGNMENT ( #123, #191, ( #162 ) ) ;
#184 = CYLINDRICAL_SURFACE ( 'NONE', #144, 2.000000000000000888 ) ;
#185 =( NAMED_UNIT ( * ) SI_UNIT ( $, .STERADIAN. ) SOLID_ANGLE_UNIT ( ) );
#186 = CARTESIAN_POINT ( 'NONE',  ( 0.0000000000000000000, 0.0000000000000000000, 0.0000000000000000000 ) ) ;
#187 = LOCAL_TIME ( 9, 5, 45.00000000000000000, #174 ) ;
#188 = PLANE ( 'NONE',  #111 ) ;
#189 = DIRECTION ( 'NONE',  ( -3.491481338843133355E-15, 1.224646799147353207E-16, -1.000000000000000000 ) ) ;
#190 = DATE_AND_TIME ( #178, #181 ) ;
#191 = PERSON_AND_ORGANIZATION_ROLE ( 'design_owner' ) ;
#192 = PERSON_AND_ORGANIZATION ( #95, #205 ) ;
#193 = CALENDAR_DATE ( 2021, 12, 11 ) ;
#194 = AXIS2_PLACEMENT_3D ( 'NONE', #153, #216, #121 ) ;
#195 = COORDINATED_UNIVERSAL_TIME_OFFSET ( 1, 0, .AHEAD. ) ;
#196 = ORIENTED_EDGE ( 'NONE', *, *, #218, .F. ) ;
#197 = CARTESIAN_POINT ( 'NONE',  ( 1.731774744066194397E-13, -6.074248123770872657E-15, 49.60000000000000853 ) ) ;
#198 = AXIS2_PLACEMENT_3D ( 'NONE', #53, #127, #147 ) ;
#199 = DIRECTION ( 'NONE',  ( -3.491481338843133355E-15, 1.224646799147353207E-16, -1.000000000000000000 ) ) ;
#200 = CARTESIAN_POINT ( 'NONE',  ( -7.910288174909372284E-31, 2.774555597924436574E-32, -2.265596578422603100E-16 ) ) ;
#201 = AXIS2_PLACEMENT_3D ( 'NONE', #157, #22, #132 ) ;
#202 = AXIS2_PLACEMENT_3D ( 'NONE', #197, #112, #163 ) ;
#203 = CARTESIAN_POINT ( 'NONE',  ( 1.745740669421566678E-13, 1.199807826129476918E-32, 50.00000000000000000 ) ) ;
#204 = PRODUCT_RELATED_PRODUCT_CATEGORY ( 'detail', '', ( #162 ) ) ;
#205 = ORGANIZATION ( 'UNSPECIFIED', 'UNSPECIFIED', '' ) ;
#206 = FACE_OUTER_BOUND ( 'NONE', #151, .T. ) ;
#207 = CARTESIAN_POINT ( 'NONE',  ( 1.731774744066194397E-13, 1.999999999999994893, 49.60000000000000853 ) ) ;
#208 = PERSON_AND_ORGANIZATION ( #95, #205 ) ;
#209 = PERSON_AND_ORGANIZATION ( #95, #205 ) ;
#210 = CC_DESIGN_DATE_AND_TIME_ASSIGNMENT ( #65, #140, ( #124 ) ) ;
#211 = DIRECTION ( 'NONE',  ( 4.275831445896958607E-31, 1.000000000000000000, 1.224646799147352961E-16 ) ) ;
#212 = FACE_OUTER_BOUND ( 'NONE', #75, .T. ) ;
#213 = APPROVAL_PERSON_ORGANIZATION ( #192, #149, #223 ) ;
#214 = EDGE_LOOP ( 'NONE', ( #110 ) ) ;
#215 = ADVANCED_FACE ( 'NONE', ( #80 ), #114, .F. ) ;
#216 = DIRECTION ( 'NONE',  ( 0.0000000000000000000, 0.0000000000000000000, 1.000000000000000000 ) ) ;
#217 = CARTESIAN_POINT ( 'NONE',  ( 5.586370142149013368E-14, 1.499759782661855418E-32, 16.00000000000000000 ) ) ;
#218 = EDGE_CURVE ( 'NONE', #117, #117, #54, .T. ) ;
#219 = VERTEX_POINT ( 'NONE', #26 ) ;
#220 =( GEOMETRIC_REPRESENTATION_CONTEXT ( 3 ) GLOBAL_UNCERTAINTY_ASSIGNED_CONTEXT ( ( #145 ) ) GLOBAL_UNIT_ASSIGNED_CONTEXT ( ( #134, #25, #185 ) ) REPRESENTATION_CONTEXT ( 'NONE', 'WORKASPACE' ) );
#221 = FACE_OUTER_BOUND ( 'NONE', #182, .T. ) ;
#222 = CALENDAR_DATE ( 2021, 12, 11 ) ;
#223 = APPROVAL_ROLE ( '' ) ;
ENDSEC;
END-ISO-10303-21;
