ISO-10303-21;
HEADER;
FILE_DESCRIPTION (( 'STEP AP203' ),
    '1' );
FILE_NAME ('56320.step',
    '2021-11-12T08:05:45',
    ( '' ),
    ( '' ),
    'SwSTEP 2.0',
    'SolidWorks 2019',
    '' );
FILE_SCHEMA (( 'CONFIG_CONTROL_DESIGN' ));
ENDSEC;

DATA;
#1 = ADVANCED_FACE ( 'NONE', ( #22, #74 ), #93, .T. ) ;
#2 = CALENDAR_DATE ( 2021, 12, 11 ) ;
#3 = ORIENTED_EDGE ( 'NONE', *, *, #72, .T. ) ;
#4 = ORIENTED_EDGE ( 'NONE', *, *, #95, .F. ) ;
#5 = PRODUCT ( '56320', '56320', '', ( #14 ) ) ;
#6 = DIRECTION ( 'NONE',  ( 0.0000000000000000000, 1.000000000000000000, 0.0000000000000000000 ) ) ;
#7 = DIRECTION ( 'NONE',  ( 0.0000000000000000000, 1.000000000000000000, 0.0000000000000000000 ) ) ;
#8 = FACE_OUTER_BOUND ( 'NONE', #109, .T. ) ;
#9 = CARTESIAN_POINT ( 'NONE',  ( 4.888073874380386066E-14, 1.124819836996390332E-32, 13.99999999999999822 ) ) ;
#10 = PRODUCT_DEFINITION ( 'UNKNOWN', '', #169, #42 ) ;
#11 = AXIS2_PLACEMENT_3D ( 'NONE', #9, #25, #199 ) ;
#12 = CARTESIAN_POINT ( 'NONE',  ( 4.888073874380386066E-14, -1.714505518806294441E-15, 13.99999999999999822 ) ) ;
#13 =( NAMED_UNIT ( * ) PLANE_ANGLE_UNIT ( ) SI_UNIT ( $, .RADIAN. ) );
#14 = MECHANICAL_CONTEXT ( 'NONE', #193, 'mechanical' ) ;
#15 = LOCAL_TIME ( 9, 5, 45.00000000000000000, #19 ) ;
#16 = PERSON_AND_ORGANIZATION_ROLE ( 'design_owner' ) ;
#17 = CALENDAR_DATE ( 2021, 12, 11 ) ;
#18 = ADVANCED_FACE ( 'NONE', ( #195, #186 ), #105, .T. ) ;
#19 = COORDINATED_UNIVERSAL_TIME_OFFSET ( 1, 0, .AHEAD. ) ;
#20 = ORIENTED_EDGE ( 'NONE', *, *, #100, .F. ) ;
#21 = AXIS2_PLACEMENT_3D ( 'NONE', #81, #77, #7 ) ;
#22 = FACE_OUTER_BOUND ( 'NONE', #129, .T. ) ;
#23 = ADVANCED_FACE ( 'NONE', ( #24 ), #94, .T. ) ;
#24 = FACE_OUTER_BOUND ( 'NONE', #145, .T. ) ;
#25 = DIRECTION ( 'NONE',  ( 3.491481338843133355E-15, -1.224646799147353207E-16, 1.000000000000000000 ) ) ;
#26 = LOCAL_TIME ( 9, 5, 45.00000000000000000, #108 ) ;
#27 = VERTEX_POINT ( 'NONE', #216 ) ;
#28 = ADVANCED_FACE ( 'NONE', ( #152, #218 ), #133, .T. ) ;
#29 = CARTESIAN_POINT ( 'NONE',  ( 1.745740669421566678E-13, 1.199999999999996181, 50.00000000000000000 ) ) ;
#30 = DIRECTION ( 'NONE',  ( -3.491481338843133355E-15, 1.224646799147353207E-16, -1.000000000000000000 ) ) ;
#31 = AXIS2_PLACEMENT_3D ( 'NONE', #44, #82, #181 ) ;
#32 = PERSON_AND_ORGANIZATION ( #204, #47 ) ;
#33 = APPROVAL_DATE_TIME ( #70, #52 ) ;
#34 = CIRCLE ( 'NONE', #143, 1.200000000000002176 ) ;
#35 = PERSON_AND_ORGANIZATION ( #204, #47 ) ;
#36 = EDGE_LOOP ( 'NONE', ( #3 ) ) ;
#37 = LOCAL_TIME ( 9, 5, 45.00000000000000000, #220 ) ;
#38 = CC_DESIGN_PERSON_AND_ORGANIZATION_ASSIGNMENT ( #48, #205, ( #127 ) ) ;
#39 = APPLICATION_CONTEXT ( 'configuration controlled 3d designs of mechanical parts and assemblies' ) ;
#40 = ADVANCED_FACE ( 'NONE', ( #8 ), #170, .T. ) ;
#41 = CIRCLE ( 'NONE', #21, 1.499999999999999556 ) ;
#42 = DESIGN_CONTEXT ( 'detailed design', #39, 'design' ) ;
#43 = CARTESIAN_POINT ( 'NONE',  ( -5.772372451960892980E-31, 2.024675706593507223E-32, -1.653273178848926374E-16 ) ) ;
#44 = CARTESIAN_POINT ( 'NONE',  ( -5.772372451960892980E-31, 2.024675706593507223E-32, -1.653273178848926374E-16 ) ) ;
#45 = DIRECTION ( 'NONE',  ( 0.0000000000000000000, 1.000000000000000000, 0.0000000000000000000 ) ) ;
#46 = DIRECTION ( 'NONE',  ( -3.491481338843133355E-15, 1.224646799147353207E-16, -1.000000000000000000 ) ) ;
#47 = ORGANIZATION ( 'UNSPECIFIED', 'UNSPECIFIED', '' ) ;
#48 = PERSON_AND_ORGANIZATION ( #204, #47 ) ;
#49 = CLOSED_SHELL ( 'NONE', ( #63, #1, #211, #146 ) ) ;
#50 = SHAPE_DEFINITION_REPRESENTATION ( #107, #110 ) ;
#51 = DATE_AND_TIME ( #17, #15 ) ;
#52 = APPROVAL ( #119, 'UNSPECIFIED' ) ;
#53 = EDGE_LOOP ( 'NONE', ( #148 ) ) ;
#54 = AXIS2_PLACEMENT_3D ( 'NONE', #114, #46, #151 ) ;
#55 = ORIENTED_EDGE ( 'NONE', *, *, #130, .F. ) ;
#56 = AXIS2_PLACEMENT_3D ( 'NONE', #62, #135, #215 ) ;
#57 = CIRCLE ( 'NONE', #123, 1.499999999999996891 ) ;
#58 = DIRECTION ( 'NONE',  ( 0.0000000000000000000, 1.000000000000000000, 0.0000000000000000000 ) ) ;
#59 = DIRECTION ( 'NONE',  ( 0.0000000000000000000, 1.000000000000000000, 0.0000000000000000000 ) ) ;
#60 = PRODUCT_RELATED_PRODUCT_CATEGORY ( 'detail', '', ( #5 ) ) ;
#61 = VERTEX_POINT ( 'NONE', #117 ) ;
#62 = CARTESIAN_POINT ( 'NONE',  ( -2.886186225980446490E-31, 1.012337853296753612E-32, -8.266365894244631868E-17 ) ) ;
#63 = ADVANCED_FACE ( 'NONE', ( #198 ), #167, .F. ) ;
#64 = DIRECTION ( 'NONE',  ( -3.491481338843133355E-15, 1.224646799147353207E-16, -1.000000000000000000 ) ) ;
#65 = DATE_AND_TIME ( #176, #37 ) ;
#66 = AXIS2_PLACEMENT_3D ( 'NONE', #115, #153, #116 ) ;
#67 = APPROVAL_STATUS ( 'not_yet_approved' ) ;
#68 = PERSON_AND_ORGANIZATION_ROLE ( 'design_supplier' ) ;
#69 = EDGE_CURVE ( 'NONE', #27, #27, #134, .T. ) ;
#70 = DATE_AND_TIME ( #175, #164 ) ;
#71 = CARTESIAN_POINT ( 'NONE',  ( 5.237222008264699047E-16, 1.499999999999999556, 0.1499999999999999944 ) ) ;
#72 = EDGE_CURVE ( 'NONE', #61, #61, #90, .T. ) ;
#73 = ORIENTED_EDGE ( 'NONE', *, *, #69, .F. ) ;
#74 = FACE_OUTER_BOUND ( 'NONE', #210, .T. ) ;
#75 = APPROVAL_ROLE ( '' ) ;
#76 = ORIENTED_EDGE ( 'NONE', *, *, #130, .T. ) ;
#77 = DIRECTION ( 'NONE',  ( -3.491481338843133355E-15, 1.224646799147353207E-16, -1.000000000000000000 ) ) ;
#78 = LOCAL_TIME ( 9, 5, 45.00000000000000000, #125 ) ;
#79 = CC_DESIGN_PERSON_AND_ORGANIZATION_ASSIGNMENT ( #35, #68, ( #169 ) ) ;
#80 = DIRECTION ( 'NONE',  ( 4.493836536903551492E-31, 1.000000000000000000, 1.264902534566422168E-16 ) ) ;
#81 = CARTESIAN_POINT ( 'NONE',  ( 4.888073874380386066E-14, -1.714505518806294441E-15, 13.99999999999999822 ) ) ;
#82 = DIRECTION ( 'NONE',  ( 3.491481338843133355E-15, -1.224646799147353207E-16, 1.000000000000000000 ) ) ;
#83 = MANIFOLD_SOLID_BREP ( 'Corps-Déplacer/Copier1[1]', #49 ) ;
#84 = PLANE ( 'NONE',  #213 ) ;
#85 = DIRECTION ( 'NONE',  ( 1.000000000000000000, 0.0000000000000000000, 0.0000000000000000000 ) ) ;
#86 = AXIS2_PLACEMENT_3D ( 'NONE', #184, #97, #45 ) ;
#87 = APPROVAL_DATE_TIME ( #65, #179 ) ;
#88 = PERSON_AND_ORGANIZATION ( #204, #47 ) ;
#89 = VERTEX_POINT ( 'NONE', #71 ) ;
#90 = CIRCLE ( 'NONE', #201, 1.499999999999999556 ) ;
#91 = EDGE_LOOP ( 'NONE', ( #212 ) ) ;
#92 = ORIENTED_EDGE ( 'NONE', *, *, #137, .F. ) ;
#93 = CYLINDRICAL_SURFACE ( 'NONE', #101, 1.499999999999998224 ) ;
#94 = PLANE ( 'NONE',  #11 ) ;
#95 = EDGE_CURVE ( 'NONE', #185, #185, #34, .T. ) ;
#96 = DIRECTION ( 'NONE',  ( 4.275831445896958607E-31, 1.000000000000000000, 1.224646799147353207E-16 ) ) ;
#97 = DIRECTION ( 'NONE',  ( -3.491481338843133355E-15, 1.224646799147353207E-16, -1.000000000000000000 ) ) ;
#98 = VERTEX_POINT ( 'NONE', #172 ) ;
#99 = FACE_OUTER_BOUND ( 'NONE', #180, .T. ) ;
#100 = EDGE_CURVE ( 'NONE', #98, #98, #41, .T. ) ;
#101 = AXIS2_PLACEMENT_3D ( 'NONE', #166, #192, #111 ) ;
#102 = CALENDAR_DATE ( 2021, 12, 11 ) ;
#103 = CC_DESIGN_SECURITY_CLASSIFICATION ( #127, ( #169 ) ) ;
#104 = APPROVAL ( #162, 'UNSPECIFIED' ) ;
#105 = CONICAL_SURFACE ( 'NONE', #31, 1.349999999999999645, 0.7853981633974482790 ) ;
#106 = PERSON_AND_ORGANIZATION ( #204, #47 ) ;
#107 = PRODUCT_DEFINITION_SHAPE ( 'NONE', 'NONE',  #10 ) ;
#108 = COORDINATED_UNIVERSAL_TIME_OFFSET ( 1, 0, .AHEAD. ) ;
#109 = EDGE_LOOP ( 'NONE', ( #209 ) ) ;
#110 = ADVANCED_BREP_SHAPE_REPRESENTATION ( '56320', ( #83, #158, #217 ), #206 ) ;
#111 = DIRECTION ( 'NONE',  ( 4.275831445896958607E-31, 1.000000000000000000, 1.224646799147353207E-16 ) ) ;
#112 = ORIENTED_EDGE ( 'NONE', *, *, #137, .T. ) ;
#113 = CLOSED_SHELL ( 'NONE', ( #40, #18, #28, #23 ) ) ;
#114 = CARTESIAN_POINT ( 'NONE',  ( 0.0000000000000000000, 0.0000000000000000000, 0.0000000000000000000 ) ) ;
#115 = CARTESIAN_POINT ( 'NONE',  ( 4.888073874380386066E-14, 1.124819836996390332E-32, 13.99999999999999822 ) ) ;
#116 = DIRECTION ( 'NONE',  ( -4.275831445896958607E-31, -1.000000000000000000, -1.224646799147353207E-16 ) ) ;
#117 = CARTESIAN_POINT ( 'NONE',  ( 4.888073874380386066E-14, 1.499999999999997780, 13.99999999999999822 ) ) ;
#118 = CARTESIAN_POINT ( 'NONE',  ( 1.745740669421566678E-13, -6.123233995736766085E-15, 50.00000000000000000 ) ) ;
#119 = APPROVAL_STATUS ( 'not_yet_approved' ) ;
#120 = CARTESIAN_POINT ( 'NONE',  ( 0.0000000000000000000, 0.0000000000000000000, 0.0000000000000000000 ) ) ;
#121 = APPROVAL_ROLE ( '' ) ;
#122 = DATE_AND_TIME ( #2, #26 ) ;
#123 = AXIS2_PLACEMENT_3D ( 'NONE', #214, #136, #58 ) ;
#124 = CC_DESIGN_DATE_AND_TIME_ASSIGNMENT ( #174, #154, ( #10 ) ) ;
#125 = COORDINATED_UNIVERSAL_TIME_OFFSET ( 1, 0, .AHEAD. ) ;
#126 = APPROVAL_DATE_TIME ( #51, #104 ) ;
#127 = SECURITY_CLASSIFICATION ( '', '', #203 ) ;
#128 = EDGE_LOOP ( 'NONE', ( #76 ) ) ;
#129 = EDGE_LOOP ( 'NONE', ( #112 ) ) ;
#130 = EDGE_CURVE ( 'NONE', #89, #89, #159, .T. ) ;
#131 = DIRECTION ( 'NONE',  ( 4.275831445896958607E-31, 1.000000000000000000, 1.224646799147353207E-16 ) ) ;
#132 = FACE_BOUND ( 'NONE', #91, .T. ) ;
#133 = CYLINDRICAL_SURFACE ( 'NONE', #54, 1.499999999999999556 ) ;
#134 = CIRCLE ( 'NONE', #188, 1.349999999999999645 ) ;
#135 = DIRECTION ( 'NONE',  ( -3.491481338843133355E-15, 1.224646799147353207E-16, -1.000000000000000000 ) ) ;
#136 = DIRECTION ( 'NONE',  ( -3.491481338843133355E-15, 1.224646799147353207E-16, -1.000000000000000000 ) ) ;
#137 = EDGE_CURVE ( 'NONE', #144, #144, #57, .T. ) ;
#138 =( LENGTH_UNIT ( ) NAMED_UNIT ( * ) SI_UNIT ( .MILLI., .METRE. ) );
#139 = APPROVAL_PERSON_ORGANIZATION ( #106, #179, #223 ) ;
#140 = APPLICATION_PROTOCOL_DEFINITION ( 'international standard', 'config_control_design', 1994, #39 ) ;
#141 = APPLICATION_PROTOCOL_DEFINITION ( 'international standard', 'config_control_design', 1994, #193 ) ;
#142 = PERSON_AND_ORGANIZATION_ROLE ( 'creator' ) ;
#143 = AXIS2_PLACEMENT_3D ( 'NONE', #118, #30, #59 ) ;
#144 = VERTEX_POINT ( 'NONE', #189 ) ;
#145 = EDGE_LOOP ( 'NONE', ( #149 ) ) ;
#146 = ADVANCED_FACE ( 'NONE', ( #99 ), #84, .F. ) ;
#147 = CC_DESIGN_APPROVAL ( #104, ( #127 ) ) ;
#148 = ORIENTED_EDGE ( 'NONE', *, *, #100, .T. ) ;
#149 = ORIENTED_EDGE ( 'NONE', *, *, #72, .F. ) ;
#150 = DIRECTION ( 'NONE',  ( -3.491481338843133355E-15, 1.224646799147353207E-16, -1.000000000000000000 ) ) ;
#151 = DIRECTION ( 'NONE',  ( 4.275831445896958607E-31, 1.000000000000000000, 1.224646799147353207E-16 ) ) ;
#152 = FACE_OUTER_BOUND ( 'NONE', #36, .T. ) ;
#153 = DIRECTION ( 'NONE',  ( 3.491481338843133355E-15, -1.224646799147353207E-16, 1.000000000000000000 ) ) ;
#154 = DATE_TIME_ROLE ( 'creation_date' ) ;
#155 = APPROVAL_PERSON_ORGANIZATION ( #202, #52, #121 ) ;
#156 = DIRECTION ( 'NONE',  ( 0.0000000000000000000, 0.0000000000000000000, 1.000000000000000000 ) ) ;
#157 = COORDINATED_UNIVERSAL_TIME_OFFSET ( 1, 0, .AHEAD. ) ;
#158 = MANIFOLD_SOLID_BREP ( 'Corps-Déplacer/Copier1[2]', #113 ) ;
#159 = CIRCLE ( 'NONE', #160, 1.499999999999999556 ) ;
#160 = AXIS2_PLACEMENT_3D ( 'NONE', #197, #150, #80 ) ;
#161 = CC_DESIGN_PERSON_AND_ORGANIZATION_ASSIGNMENT ( #88, #16, ( #5 ) ) ;
#162 = APPROVAL_STATUS ( 'not_yet_approved' ) ;
#163 = EDGE_LOOP ( 'NONE', ( #73 ) ) ;
#164 = LOCAL_TIME ( 9, 5, 45.00000000000000000, #157 ) ;
#165 = CC_DESIGN_PERSON_AND_ORGANIZATION_ASSIGNMENT ( #222, #187, ( #10 ) ) ;
#166 = CARTESIAN_POINT ( 'NONE',  ( 0.0000000000000000000, 0.0000000000000000000, 0.0000000000000000000 ) ) ;
#167 = PLANE ( 'NONE',  #66 ) ;
#168 = UNCERTAINTY_MEASURE_WITH_UNIT (LENGTH_MEASURE( 1.000000000000000082E-05 ), #138, 'distance_accuracy_value', 'NONE');
#169 = PRODUCT_DEFINITION_FORMATION_WITH_SPECIFIED_SOURCE ( 'ANY', '', #5, .NOT_KNOWN. ) ;
#170 = PLANE ( 'NONE',  #56 ) ;
#171 = DIRECTION ( 'NONE',  ( -3.491481338843133355E-15, 1.224646799147353207E-16, -1.000000000000000000 ) ) ;
#172 = CARTESIAN_POINT ( 'NONE',  ( 4.888073874380386066E-14, 1.499999999999997780, 13.99999999999999822 ) ) ;
#173 = CC_DESIGN_APPROVAL ( #52, ( #10 ) ) ;
#174 = DATE_AND_TIME ( #102, #78 ) ;
#175 = CALENDAR_DATE ( 2021, 12, 11 ) ;
#176 = CALENDAR_DATE ( 2021, 12, 11 ) ;
#177 = PERSON_AND_ORGANIZATION ( #204, #47 ) ;
#178 = CONICAL_SURFACE ( 'NONE', #86, 1.499999999999996891, 0.7853981633974367327 ) ;
#179 = APPROVAL ( #67, 'UNSPECIFIED' ) ;
#180 = EDGE_LOOP ( 'NONE', ( #4 ) ) ;
#181 = DIRECTION ( 'NONE',  ( -4.275831445896958607E-31, -1.000000000000000000, -1.224646799147353207E-16 ) ) ;
#182 = DIRECTION ( 'NONE',  ( -3.491481338843133355E-15, 1.224646799147353207E-16, -1.000000000000000000 ) ) ;
#183 = APPROVAL_PERSON_ORGANIZATION ( #177, #104, #75 ) ;
#184 = CARTESIAN_POINT ( 'NONE',  ( 1.735266225405037467E-13, -6.086494591762345225E-15, 49.70000000000000284 ) ) ;
#185 = VERTEX_POINT ( 'NONE', #29 ) ;
#186 = FACE_BOUND ( 'NONE', #163, .T. ) ;
#187 = PERSON_AND_ORGANIZATION_ROLE ( 'creator' ) ;
#188 = AXIS2_PLACEMENT_3D ( 'NONE', #43, #182, #96 ) ;
#189 = CARTESIAN_POINT ( 'NONE',  ( 1.735266225405037467E-13, 1.499999999999990896, 49.70000000000000284 ) ) ;
#190 = DATE_TIME_ROLE ( 'classification_date' ) ;
#191 = CC_DESIGN_APPROVAL ( #179, ( #169 ) ) ;
#192 = DIRECTION ( 'NONE',  ( -3.491481338843133355E-15, 1.224646799147353207E-16, -1.000000000000000000 ) ) ;
#193 = APPLICATION_CONTEXT ( 'configuration controlled 3d designs of mechanical parts and assemblies' ) ;
#194 = EDGE_LOOP ( 'NONE', ( #92 ) ) ;
#195 = FACE_OUTER_BOUND ( 'NONE', #128, .T. ) ;
#196 = FACE_OUTER_BOUND ( 'NONE', #194, .T. ) ;
#197 = CARTESIAN_POINT ( 'NONE',  ( 5.237222008264693130E-16, -1.836970198721027284E-17, 0.1499999999999998002 ) ) ;
#198 = FACE_OUTER_BOUND ( 'NONE', #53, .T. ) ;
#199 = DIRECTION ( 'NONE',  ( -4.275831445896958607E-31, -1.000000000000000000, -1.224646799147353207E-16 ) ) ;
#200 =( NAMED_UNIT ( * ) SI_UNIT ( $, .STERADIAN. ) SOLID_ANGLE_UNIT ( ) );
#201 = AXIS2_PLACEMENT_3D ( 'NONE', #12, #171, #6 ) ;
#202 = PERSON_AND_ORGANIZATION ( #204, #47 ) ;
#203 = SECURITY_CLASSIFICATION_LEVEL ( 'unclassified' ) ;
#204 = PERSON ( 'UNSPECIFIED', 'UNSPECIFIED', 'UNSPECIFIED', ('UNSPECIFIED'), ('UNSPECIFIED'), ('UNSPECIFIED') ) ;
#205 = PERSON_AND_ORGANIZATION_ROLE ( 'classification_officer' ) ;
#206 =( GEOMETRIC_REPRESENTATION_CONTEXT ( 3 ) GLOBAL_UNCERTAINTY_ASSIGNED_CONTEXT ( ( #168 ) ) GLOBAL_UNIT_ASSIGNED_CONTEXT ( ( #138, #13, #200 ) ) REPRESENTATION_CONTEXT ( 'NONE', 'WORKASPACE' ) );
#207 = CC_DESIGN_PERSON_AND_ORGANIZATION_ASSIGNMENT ( #32, #142, ( #169 ) ) ;
#208 = EDGE_LOOP ( 'NONE', ( #55 ) ) ;
#209 = ORIENTED_EDGE ( 'NONE', *, *, #69, .T. ) ;
#210 = EDGE_LOOP ( 'NONE', ( #20 ) ) ;
#211 = ADVANCED_FACE ( 'NONE', ( #132, #196 ), #178, .T. ) ;
#212 = ORIENTED_EDGE ( 'NONE', *, *, #95, .T. ) ;
#213 = AXIS2_PLACEMENT_3D ( 'NONE', #219, #64, #131 ) ;
#214 = CARTESIAN_POINT ( 'NONE',  ( 1.735266225405037467E-13, -6.086494591762345225E-15, 49.70000000000000284 ) ) ;
#215 = DIRECTION ( 'NONE',  ( 4.275831445896958607E-31, 1.000000000000000000, 1.224646799147353207E-16 ) ) ;
#216 = CARTESIAN_POINT ( 'NONE',  ( 0.0000000000000000000, 1.349999999999999645, 0.0000000000000000000 ) ) ;
#217 = AXIS2_PLACEMENT_3D ( 'NONE', #120, #156, #85 ) ;
#218 = FACE_OUTER_BOUND ( 'NONE', #208, .T. ) ;
#219 = CARTESIAN_POINT ( 'NONE',  ( 1.745740669421566678E-13, 8.998558695971073119E-33, 50.00000000000000000 ) ) ;
#220 = COORDINATED_UNIVERSAL_TIME_OFFSET ( 1, 0, .AHEAD. ) ;
#221 = CC_DESIGN_DATE_AND_TIME_ASSIGNMENT ( #122, #190, ( #127 ) ) ;
#222 = PERSON_AND_ORGANIZATION ( #204, #47 ) ;
#223 = APPROVAL_ROLE ( '' ) ;
ENDSEC;
END-ISO-10303-21;
