ISO-10303-21;
HEADER;
FILE_DESCRIPTION (( 'STEP AP203' ),
    '1' );
FILE_NAME ('56318.step',
    '2021-11-12T07:08:20',
    ( '' ),
    ( '' ),
    'SwSTEP 2.0',
    'SolidWorks 2019',
    '' );
FILE_SCHEMA (( 'CONFIG_CONTROL_DESIGN' ));
ENDSEC;

DATA;
#1 = MECHANICAL_CONTEXT ( 'NONE', #83, 'mechanical' ) ;
#2 = PLANE ( 'NONE',  #49 ) ;
#3 = CARTESIAN_POINT ( 'NONE',  ( 8.728703347107833388E-14, -3.061616997868383831E-15, 25.00000000000000000 ) ) ;
#4 = AXIS2_PLACEMENT_3D ( 'NONE', #113, #188, #91 ) ;
#5 = EDGE_LOOP ( 'NONE', ( #63 ) ) ;
#6 = PERSON_AND_ORGANIZATION ( #175, #16 ) ;
#7 = PERSON_AND_ORGANIZATION_ROLE ( 'creator' ) ;
#8 = AXIS2_PLACEMENT_3D ( 'NONE', #28, #69, #108 ) ;
#9 = ADVANCED_FACE ( 'NONE', ( #161, #137 ), #142, .T. ) ;
#10 = DIRECTION ( 'NONE',  ( 1.000000000000000000, 0.0000000000000000000, 0.0000000000000000000 ) ) ;
#11 = CALENDAR_DATE ( 2021, 12, 11 ) ;
#12 = CARTESIAN_POINT ( 'NONE',  ( 2.863014697851369604E-13, 4.799231304517930661E-32, 82.00000000000000000 ) ) ;
#13 = DIRECTION ( 'NONE',  ( -3.491481338843133355E-15, 1.224646799147353454E-16, -1.000000000000000000 ) ) ;
#14 = ORIENTED_EDGE ( 'NONE', *, *, #26, .F. ) ;
#15 = ORIENTED_EDGE ( 'NONE', *, *, #110, .F. ) ;
#16 = ORGANIZATION ( 'UNSPECIFIED', 'UNSPECIFIED', '' ) ;
#17 = CARTESIAN_POINT ( 'NONE',  ( 8.728703347107833388E-14, -3.061616997868383831E-15, 25.00000000000000000 ) ) ;
#18 = AXIS2_PLACEMENT_3D ( 'NONE', #126, #133, #208 ) ;
#19 = CALENDAR_DATE ( 2021, 12, 11 ) ;
#20 = DATE_TIME_ROLE ( 'creation_date' ) ;
#21 = LOCAL_TIME ( 8, 8, 20.00000000000000000, #196 ) ;
#22 = EDGE_CURVE ( 'NONE', #151, #151, #98, .T. ) ;
#23 = AXIS2_PLACEMENT_3D ( 'NONE', #47, #74, #95 ) ;
#24 = FACE_OUTER_BOUND ( 'NONE', #212, .T. ) ;
#25 = DIRECTION ( 'NONE',  ( 3.491481338843133355E-15, -1.224646799147353454E-16, 1.000000000000000000 ) ) ;
#26 = EDGE_CURVE ( 'NONE', #106, #106, #197, .T. ) ;
#27 = AXIS2_PLACEMENT_3D ( 'NONE', #221, #89, #10 ) ;
#28 = CARTESIAN_POINT ( 'NONE',  ( 0.0000000000000000000, 0.0000000000000000000, 0.0000000000000000000 ) ) ;
#29 = APPROVAL_DATE_TIME ( #207, #85 ) ;
#30 = PERSON_AND_ORGANIZATION_ROLE ( 'classification_officer' ) ;
#31 = PLANE ( 'NONE',  #87 ) ;
#32 = LOCAL_TIME ( 8, 8, 20.00000000000000000, #132 ) ;
#33 = ORIENTED_EDGE ( 'NONE', *, *, #96, .F. ) ;
#34 = CC_DESIGN_DATE_AND_TIME_ASSIGNMENT ( #42, #72, ( #204 ) ) ;
#35 = EDGE_LOOP ( 'NONE', ( #14 ) ) ;
#36 = AXIS2_PLACEMENT_3D ( 'NONE', #194, #99, #62 ) ;
#37 = DATE_AND_TIME ( #19, #40 ) ;
#38 = CALENDAR_DATE ( 2021, 12, 11 ) ;
#39 = DIRECTION ( 'NONE',  ( -3.491481338843133355E-15, 1.224646799147353454E-16, -1.000000000000000000 ) ) ;
#40 = LOCAL_TIME ( 8, 8, 20.00000000000000000, #163 ) ;
#41 = CARTESIAN_POINT ( 'NONE',  ( 3.491481338843133355E-16, 0.0000000000000000000, 0.1000000000000000056 ) ) ;
#42 = DATE_AND_TIME ( #56, #44 ) ;
#43 = DIRECTION ( 'NONE',  ( 3.491481338843133355E-15, -0.0000000000000000000, 1.000000000000000000 ) ) ;
#44 = LOCAL_TIME ( 8, 8, 20.00000000000000000, #170 ) ;
#45 = FACE_OUTER_BOUND ( 'NONE', #158, .T. ) ;
#46 = VERTEX_POINT ( 'NONE', #154 ) ;
#47 = CARTESIAN_POINT ( 'NONE',  ( 2.807150996429879470E-13, -9.846160265144721058E-15, 80.40000000000000568 ) ) ;
#48 = FACE_OUTER_BOUND ( 'NONE', #192, .T. ) ;
#49 = AXIS2_PLACEMENT_3D ( 'NONE', #12, #58, #136 ) ;
#50 = DIRECTION ( 'NONE',  ( -3.491481338843133355E-15, 1.224646799147353454E-16, -1.000000000000000000 ) ) ;
#51 = DIRECTION ( 'NONE',  ( -3.491481338843133355E-15, 1.224646799147353454E-16, -1.000000000000000000 ) ) ;
#52 = ORIENTED_EDGE ( 'NONE', *, *, #103, .F. ) ;
#53 = APPROVAL_STATUS ( 'not_yet_approved' ) ;
#54 = PERSON_AND_ORGANIZATION ( #175, #16 ) ;
#55 = AXIS2_PLACEMENT_3D ( 'NONE', #75, #13, #189 ) ;
#56 = CALENDAR_DATE ( 2021, 12, 11 ) ;
#57 = CARTESIAN_POINT ( 'NONE',  ( 2.807150996429879470E-13, 7.999999999999986677, 80.40000000000000568 ) ) ;
#58 = DIRECTION ( 'NONE',  ( -3.491481338843133355E-15, 1.224646799147353454E-16, -1.000000000000000000 ) ) ;
#59 = CIRCLE ( 'NONE', #149, 6.399999999999999467 ) ;
#60 = PRODUCT_DEFINITION_SHAPE ( 'NONE', 'NONE',  #171 ) ;
#61 = ADVANCED_FACE ( 'NONE', ( #191 ), #141, .T. ) ;
#62 = DIRECTION ( 'NONE',  ( 4.275831445896959482E-31, 1.000000000000000000, 1.224646799147353454E-16 ) ) ;
#63 = ORIENTED_EDGE ( 'NONE', *, *, #184, .T. ) ;
#64 = EDGE_LOOP ( 'NONE', ( #210 ) ) ;
#65 = EDGE_LOOP ( 'NONE', ( #15 ) ) ;
#66 = DESIGN_CONTEXT ( 'detailed design', #109, 'design' ) ;
#67 = APPROVAL_ROLE ( '' ) ;
#68 = APPLICATION_PROTOCOL_DEFINITION ( 'international standard', 'config_control_design', 1994, #109 ) ;
#69 = DIRECTION ( 'NONE',  ( -3.491481338843133355E-15, 1.224646799147353454E-16, -1.000000000000000000 ) ) ;
#70 = AXIS2_PLACEMENT_3D ( 'NONE', #41, #43, #185 ) ;
#71 = VERTEX_POINT ( 'NONE', #134 ) ;
#72 = DATE_TIME_ROLE ( 'classification_date' ) ;
#73 =( LENGTH_UNIT ( ) NAMED_UNIT ( * ) SI_UNIT ( .MILLI., .METRE. ) );
#74 = DIRECTION ( 'NONE',  ( -3.491481338843133355E-15, 1.224646799147353454E-16, -1.000000000000000000 ) ) ;
#75 = CARTESIAN_POINT ( 'NONE',  ( 2.807150996429879470E-13, -9.846160265144721058E-15, 80.40000000000000568 ) ) ;
#76 = ORIENTED_EDGE ( 'NONE', *, *, #110, .T. ) ;
#77 = EDGE_LOOP ( 'NONE', ( #143 ) ) ;
#78 = ORIENTED_EDGE ( 'NONE', *, *, #22, .T. ) ;
#79 = ADVANCED_FACE ( 'NONE', ( #114, #48 ), #159, .T. ) ;
#80 = EDGE_LOOP ( 'NONE', ( #76 ) ) ;
#81 = DIRECTION ( 'NONE',  ( -3.491481338843133355E-15, 1.224646799147353454E-16, -1.000000000000000000 ) ) ;
#82 = APPROVAL_PERSON_ORGANIZATION ( #144, #92, #124 ) ;
#83 = APPLICATION_CONTEXT ( 'configuration controlled 3d designs of mechanical parts and assemblies' ) ;
#84 = PERSON_AND_ORGANIZATION ( #175, #16 ) ;
#85 = APPROVAL ( #202, 'UNSPECIFIED' ) ;
#86 = CARTESIAN_POINT ( 'NONE',  ( 8.728703347107833388E-14, 7.999999999999996447, 25.00000000000000000 ) ) ;
#87 = AXIS2_PLACEMENT_3D ( 'NONE', #145, #25, #219 ) ;
#88 = FACE_OUTER_BOUND ( 'NONE', #35, .T. ) ;
#89 = DIRECTION ( 'NONE',  ( 0.0000000000000000000, 0.0000000000000000000, 1.000000000000000000 ) ) ;
#90 = SHAPE_DEFINITION_REPRESENTATION ( #60, #115 ) ;
#91 = DIRECTION ( 'NONE',  ( 1.000000000000000000, 0.0000000000000000000, -3.491469808582225998E-15 ) ) ;
#92 = APPROVAL ( #214, 'UNSPECIFIED' ) ;
#93 = AXIS2_PLACEMENT_3D ( 'NONE', #17, #81, #121 ) ;
#94 = PERSON_AND_ORGANIZATION ( #175, #16 ) ;
#95 = DIRECTION ( 'NONE',  ( 0.0000000000000000000, 1.000000000000000000, 0.0000000000000000000 ) ) ;
#96 = EDGE_CURVE ( 'NONE', #71, #71, #218, .T. ) ;
#97 = AXIS2_PLACEMENT_3D ( 'NONE', #167, #128, #200 ) ;
#98 = CIRCLE ( 'NONE', #139, 8.000000000000000000 ) ;
#99 = DIRECTION ( 'NONE',  ( -3.491481338843133355E-15, 1.224646799147353454E-16, -1.000000000000000000 ) ) ;
#100 = ORIENTED_EDGE ( 'NONE', *, *, #96, .T. ) ;
#101 = VERTEX_POINT ( 'NONE', #168 ) ;
#102 = EDGE_LOOP ( 'NONE', ( #78 ) ) ;
#103 = EDGE_CURVE ( 'NONE', #46, #46, #209, .T. ) ;
#104 = APPROVAL_DATE_TIME ( #215, #138 ) ;
#105 = CONICAL_SURFACE ( 'NONE', #4, 8.000000000000000000, 0.7853981633974538301 ) ;
#106 = VERTEX_POINT ( 'NONE', #86 ) ;
#107 = DATE_AND_TIME ( #38, #21 ) ;
#108 = DIRECTION ( 'NONE',  ( 4.275831445896959482E-31, 1.000000000000000000, 1.224646799147353454E-16 ) ) ;
#109 = APPLICATION_CONTEXT ( 'configuration controlled 3d designs of mechanical parts and assemblies' ) ;
#110 = EDGE_CURVE ( 'NONE', #101, #101, #59, .T. ) ;
#111 = APPROVAL_PERSON_ORGANIZATION ( #129, #85, #223 ) ;
#112 = FACE_BOUND ( 'NONE', #64, .T. ) ;
#113 = CARTESIAN_POINT ( 'NONE',  ( 3.491481338843133355E-16, 0.0000000000000000000, 0.1000000000000000056 ) ) ;
#114 = FACE_OUTER_BOUND ( 'NONE', #5, .T. ) ;
#115 = ADVANCED_BREP_SHAPE_REPRESENTATION ( '56318', ( #123, #206, #27 ), #190 ) ;
#116 = PRODUCT_RELATED_PRODUCT_CATEGORY ( 'detail', '', ( #187 ) ) ;
#117 = DIRECTION ( 'NONE',  ( 4.275831445896959482E-31, 1.000000000000000000, 1.224646799147353454E-16 ) ) ;
#118 = CC_DESIGN_APPROVAL ( #138, ( #171 ) ) ;
#119 = CONICAL_SURFACE ( 'NONE', #23, 7.999999999999996447, 0.7853981633974461696 ) ;
#120 = CC_DESIGN_PERSON_AND_ORGANIZATION_ASSIGNMENT ( #94, #150, ( #217 ) ) ;
#121 = DIRECTION ( 'NONE',  ( 0.0000000000000000000, 1.000000000000000000, 0.0000000000000000000 ) ) ;
#122 = COORDINATED_UNIVERSAL_TIME_OFFSET ( 1, 0, .AHEAD. ) ;
#123 = MANIFOLD_SOLID_BREP ( 'Corps-Déplacer/Copier1[1]', #201 ) ;
#124 = APPROVAL_ROLE ( '' ) ;
#125 = ADVANCED_FACE ( 'NONE', ( #112, #45 ), #105, .T. ) ;
#126 = CARTESIAN_POINT ( 'NONE',  ( -4.731839565957903391E-32, 0.0000000000000000000, -1.355252715606880543E-17 ) ) ;
#127 = CC_DESIGN_APPROVAL ( #92, ( #217 ) ) ;
#128 = DIRECTION ( 'NONE',  ( 3.491481338843133355E-15, -1.224646799147353454E-16, 1.000000000000000000 ) ) ;
#129 = PERSON_AND_ORGANIZATION ( #175, #16 ) ;
#130 =( NAMED_UNIT ( * ) PLANE_ANGLE_UNIT ( ) SI_UNIT ( $, .RADIAN. ) );
#131 = CARTESIAN_POINT ( 'NONE',  ( 8.728703347107833388E-14, 7.999999999999996447, 25.00000000000000000 ) ) ;
#132 = COORDINATED_UNIVERSAL_TIME_OFFSET ( 1, 0, .AHEAD. ) ;
#133 = DIRECTION ( 'NONE',  ( 3.491481338843133355E-15, -0.0000000000000000000, 1.000000000000000000 ) ) ;
#134 = CARTESIAN_POINT ( 'NONE',  ( 8.000000000000000000, 0.0000000000000000000, 0.09999999999997206956 ) ) ;
#135 = ADVANCED_FACE ( 'NONE', ( #165 ), #31, .F. ) ;
#136 = DIRECTION ( 'NONE',  ( 4.275831445896959482E-31, 1.000000000000000000, 1.224646799147353454E-16 ) ) ;
#137 = FACE_OUTER_BOUND ( 'NONE', #174, .T. ) ;
#138 = APPROVAL ( #53, 'UNSPECIFIED' ) ;
#139 = AXIS2_PLACEMENT_3D ( 'NONE', #3, #51, #176 ) ;
#140 = ORIENTED_EDGE ( 'NONE', *, *, #22, .F. ) ;
#141 = PLANE ( 'NONE',  #36 ) ;
#142 = CYLINDRICAL_SURFACE ( 'NONE', #211, 8.000000000000000000 ) ;
#143 = ORIENTED_EDGE ( 'NONE', *, *, #26, .T. ) ;
#144 = PERSON_AND_ORGANIZATION ( #175, #16 ) ;
#145 = CARTESIAN_POINT ( 'NONE',  ( 8.728703347107833388E-14, 5.999039130647427147E-32, 25.00000000000000000 ) ) ;
#146 = PERSON_AND_ORGANIZATION_ROLE ( 'creator' ) ;
#147 = APPLICATION_PROTOCOL_DEFINITION ( 'international standard', 'config_control_design', 1994, #83 ) ;
#148 = FACE_BOUND ( 'NONE', #80, .T. ) ;
#149 = AXIS2_PLACEMENT_3D ( 'NONE', #198, #39, #183 ) ;
#150 = PERSON_AND_ORGANIZATION_ROLE ( 'design_supplier' ) ;
#151 = VERTEX_POINT ( 'NONE', #131 ) ;
#152 = LOCAL_TIME ( 8, 8, 20.00000000000000000, #122 ) ;
#153 = FACE_OUTER_BOUND ( 'NONE', #65, .T. ) ;
#154 = CARTESIAN_POINT ( 'NONE',  ( 7.899999999999999467, 0.0000000000000000000, -2.759625510401681600E-14 ) ) ;
#155 = ORIENTED_EDGE ( 'NONE', *, *, #184, .F. ) ;
#156 = ADVANCED_FACE ( 'NONE', ( #88 ), #216, .T. ) ;
#157 = CC_DESIGN_PERSON_AND_ORGANIZATION_ASSIGNMENT ( #84, #146, ( #217 ) ) ;
#158 = EDGE_LOOP ( 'NONE', ( #33 ) ) ;
#159 = CYLINDRICAL_SURFACE ( 'NONE', #8, 7.999999999999998224 ) ;
#160 = UNCERTAINTY_MEASURE_WITH_UNIT (LENGTH_MEASURE( 1.000000000000000082E-05 ), #73, 'distance_accuracy_value', 'NONE');
#161 = FACE_OUTER_BOUND ( 'NONE', #77, .T. ) ;
#162 = PERSON_AND_ORGANIZATION_ROLE ( 'design_owner' ) ;
#163 = COORDINATED_UNIVERSAL_TIME_OFFSET ( 1, 0, .AHEAD. ) ;
#164 = APPROVAL_PERSON_ORGANIZATION ( #6, #138, #67 ) ;
#165 = FACE_OUTER_BOUND ( 'NONE', #102, .T. ) ;
#166 = ADVANCED_FACE ( 'NONE', ( #153 ), #2, .F. ) ;
#167 = CARTESIAN_POINT ( 'NONE',  ( 8.728703347107833388E-14, 5.999039130647427147E-32, 25.00000000000000000 ) ) ;
#168 = CARTESIAN_POINT ( 'NONE',  ( 2.863014697851369604E-13, 6.399999999999988809, 82.00000000000000000 ) ) ;
#169 =( NAMED_UNIT ( * ) SI_UNIT ( $, .STERADIAN. ) SOLID_ANGLE_UNIT ( ) );
#170 = COORDINATED_UNIVERSAL_TIME_OFFSET ( 1, 0, .AHEAD. ) ;
#171 = PRODUCT_DEFINITION ( 'UNKNOWN', '', #217, #66 ) ;
#172 = CC_DESIGN_PERSON_AND_ORGANIZATION_ASSIGNMENT ( #180, #7, ( #171 ) ) ;
#173 = CC_DESIGN_SECURITY_CLASSIFICATION ( #204, ( #217 ) ) ;
#174 = EDGE_LOOP ( 'NONE', ( #100 ) ) ;
#175 = PERSON ( 'UNSPECIFIED', 'UNSPECIFIED', 'UNSPECIFIED', ('UNSPECIFIED'), ('UNSPECIFIED'), ('UNSPECIFIED') ) ;
#176 = DIRECTION ( 'NONE',  ( 0.0000000000000000000, 1.000000000000000000, 0.0000000000000000000 ) ) ;
#177 = CC_DESIGN_APPROVAL ( #85, ( #204 ) ) ;
#178 = CIRCLE ( 'NONE', #55, 7.999999999999996447 ) ;
#179 = CC_DESIGN_PERSON_AND_ORGANIZATION_ASSIGNMENT ( #54, #162, ( #187 ) ) ;
#180 = PERSON_AND_ORGANIZATION ( #175, #16 ) ;
#181 = CLOSED_SHELL ( 'NONE', ( #9, #156, #125, #61 ) ) ;
#182 = APPROVAL_DATE_TIME ( #107, #92 ) ;
#183 = DIRECTION ( 'NONE',  ( 0.0000000000000000000, 1.000000000000000000, 0.0000000000000000000 ) ) ;
#184 = EDGE_CURVE ( 'NONE', #203, #203, #178, .T. ) ;
#185 = DIRECTION ( 'NONE',  ( 1.000000000000000000, 0.0000000000000000000, -3.491469808582225998E-15 ) ) ;
#186 = PERSON_AND_ORGANIZATION ( #175, #16 ) ;
#187 = PRODUCT ( '56318', '56318', '', ( #1 ) ) ;
#188 = DIRECTION ( 'NONE',  ( 3.491481338843133355E-15, -0.0000000000000000000, 1.000000000000000000 ) ) ;
#189 = DIRECTION ( 'NONE',  ( 0.0000000000000000000, 1.000000000000000000, 0.0000000000000000000 ) ) ;
#190 =( GEOMETRIC_REPRESENTATION_CONTEXT ( 3 ) GLOBAL_UNCERTAINTY_ASSIGNED_CONTEXT ( ( #160 ) ) GLOBAL_UNIT_ASSIGNED_CONTEXT ( ( #73, #130, #169 ) ) REPRESENTATION_CONTEXT ( 'NONE', 'WORKASPACE' ) );
#191 = FACE_OUTER_BOUND ( 'NONE', #213, .T. ) ;
#192 = EDGE_LOOP ( 'NONE', ( #140 ) ) ;
#193 = CARTESIAN_POINT ( 'NONE',  ( 0.0000000000000000000, 0.0000000000000000000, 0.0000000000000000000 ) ) ;
#194 = CARTESIAN_POINT ( 'NONE',  ( -1.710332578358783443E-30, 5.999039130647432621E-32, -4.898587196589413815E-16 ) ) ;
#195 = CALENDAR_DATE ( 2021, 12, 11 ) ;
#196 = COORDINATED_UNIVERSAL_TIME_OFFSET ( 1, 0, .AHEAD. ) ;
#197 = CIRCLE ( 'NONE', #93, 8.000000000000000000 ) ;
#198 = CARTESIAN_POINT ( 'NONE',  ( 2.863014697851369604E-13, -1.004210375300829793E-14, 82.00000000000000000 ) ) ;
#199 = ADVANCED_FACE ( 'NONE', ( #148, #24 ), #119, .T. ) ;
#200 = DIRECTION ( 'NONE',  ( -4.275831445896959482E-31, -1.000000000000000000, -1.224646799147353454E-16 ) ) ;
#201 = CLOSED_SHELL ( 'NONE', ( #135, #79, #199, #166 ) ) ;
#202 = APPROVAL_STATUS ( 'not_yet_approved' ) ;
#203 = VERTEX_POINT ( 'NONE', #57 ) ;
#204 = SECURITY_CLASSIFICATION ( '', '', #220 ) ;
#205 = CC_DESIGN_PERSON_AND_ORGANIZATION_ASSIGNMENT ( #186, #30, ( #204 ) ) ;
#206 = MANIFOLD_SOLID_BREP ( 'Corps-Déplacer/Copier1[2]', #181 ) ;
#207 = DATE_AND_TIME ( #11, #32 ) ;
#208 = DIRECTION ( 'NONE',  ( 1.000000000000000000, 0.0000000000000000000, -3.491481338843132961E-15 ) ) ;
#209 = CIRCLE ( 'NONE', #18, 7.899999999999999467 ) ;
#210 = ORIENTED_EDGE ( 'NONE', *, *, #103, .T. ) ;
#211 = AXIS2_PLACEMENT_3D ( 'NONE', #193, #50, #117 ) ;
#212 = EDGE_LOOP ( 'NONE', ( #155 ) ) ;
#213 = EDGE_LOOP ( 'NONE', ( #52 ) ) ;
#214 = APPROVAL_STATUS ( 'not_yet_approved' ) ;
#215 = DATE_AND_TIME ( #195, #152 ) ;
#216 = PLANE ( 'NONE',  #97 ) ;
#217 = PRODUCT_DEFINITION_FORMATION_WITH_SPECIFIED_SOURCE ( 'ANY', '', #187, .NOT_KNOWN. ) ;
#218 = CIRCLE ( 'NONE', #70, 8.000000000000000000 ) ;
#219 = DIRECTION ( 'NONE',  ( -4.275831445896959482E-31, -1.000000000000000000, -1.224646799147353454E-16 ) ) ;
#220 = SECURITY_CLASSIFICATION_LEVEL ( 'unclassified' ) ;
#221 = CARTESIAN_POINT ( 'NONE',  ( 0.0000000000000000000, 0.0000000000000000000, 0.0000000000000000000 ) ) ;
#222 = CC_DESIGN_DATE_AND_TIME_ASSIGNMENT ( #37, #20, ( #171 ) ) ;
#223 = APPROVAL_ROLE ( '' ) ;
ENDSEC;
END-ISO-10303-21;
