ISO-10303-21;
HEADER;
FILE_DESCRIPTION (( 'STEP AP203' ),
    '1' );
FILE_NAME ('56307.step',
    '2021-11-12T07:08:19',
    ( '' ),
    ( '' ),
    'SwSTEP 2.0',
    'SolidWorks 2019',
    '' );
FILE_SCHEMA (( 'CONFIG_CONTROL_DESIGN' ));
ENDSEC;

DATA;
#1 = CIRCLE ( 'NONE', #163, 1.250000000000000000 ) ;
#2 = PLANE ( 'NONE',  #191 ) ;
#3 = ORIENTED_EDGE ( 'NONE', *, *, #126, .T. ) ;
#4 = PRODUCT_RELATED_PRODUCT_CATEGORY ( 'detail', '', ( #171 ) ) ;
#5 = APPROVAL_PERSON_ORGANIZATION ( #44, #139, #218 ) ;
#6 = CYLINDRICAL_SURFACE ( 'NONE', #35, 1.999999999999997113 ) ;
#7 = AXIS2_PLACEMENT_3D ( 'NONE', #214, #213, #155 ) ;
#8 = VERTEX_POINT ( 'NONE', #79 ) ;
#9 = APPLICATION_PROTOCOL_DEFINITION ( 'international standard', 'config_control_design', 1994, #221 ) ;
#10 = CLOSED_SHELL ( 'NONE', ( #19, #68, #14, #203 ) ) ;
#11 = APPROVAL_DATE_TIME ( #232, #229 ) ;
#12 = PERSON_AND_ORGANIZATION_ROLE ( 'classification_officer' ) ;
#13 = SHAPE_DEFINITION_REPRESENTATION ( #75, #153 ) ;
#14 = ADVANCED_FACE ( 'NONE', ( #34, #131 ), #127, .T. ) ;
#15 = CALENDAR_DATE ( 2021, 12, 11 ) ;
#16 = EDGE_LOOP ( 'NONE', ( #146 ) ) ;
#17 = AXIS2_PLACEMENT_3D ( 'NONE', #149, #36, #132 ) ;
#18 = DIRECTION ( 'NONE',  ( 3.491481338843133355E-15, -0.0000000000000000000, 1.000000000000000000 ) ) ;
#19 = ADVANCED_FACE ( 'NONE', ( #115, #111 ), #205, .T. ) ;
#20 = EDGE_LOOP ( 'NONE', ( #201 ) ) ;
#21 = DIRECTION ( 'NONE',  ( -3.491481338843133355E-15, 1.224646799147353207E-16, -1.000000000000000000 ) ) ;
#22 = DIRECTION ( 'NONE',  ( 3.491481338843133355E-15, -1.223397583181748052E-16, 1.000000000000000000 ) ) ;
#23 = FACE_OUTER_BOUND ( 'NONE', #51, .T. ) ;
#24 = CARTESIAN_POINT ( 'NONE',  ( 1.745740669421566678E-13, 1.599999999999990319, 50.00000000000000000 ) ) ;
#25 = SECURITY_CLASSIFICATION_LEVEL ( 'unclassified' ) ;
#26 = AXIS2_PLACEMENT_3D ( 'NONE', #227, #186, #54 ) ;
#27 = PLANE ( 'NONE',  #7 ) ;
#28 = COORDINATED_UNIVERSAL_TIME_OFFSET ( 1, 0, .AHEAD. ) ;
#29 = LOCAL_TIME ( 8, 8, 19.00000000000000000, #178 ) ;
#30 = MECHANICAL_CONTEXT ( 'NONE', #221, 'mechanical' ) ;
#31 = APPLICATION_PROTOCOL_DEFINITION ( 'international standard', 'config_control_design', 1994, #82 ) ;
#32 = PERSON ( 'UNSPECIFIED', 'UNSPECIFIED', 'UNSPECIFIED', ('UNSPECIFIED'), ('UNSPECIFIED'), ('UNSPECIFIED') ) ;
#33 = PRODUCT_DEFINITION ( 'UNKNOWN', '', #158, #143 ) ;
#34 = FACE_BOUND ( 'NONE', #114, .T. ) ;
#35 = AXIS2_PLACEMENT_3D ( 'NONE', #129, #21, #135 ) ;
#36 = DIRECTION ( 'NONE',  ( 3.491481338843133355E-15, -0.0000000000000000000, 1.000000000000000000 ) ) ;
#37 = DIRECTION ( 'NONE',  ( 4.275831445896958607E-31, 1.000000000000000000, 1.224646799147353207E-16 ) ) ;
#38 = EDGE_LOOP ( 'NONE', ( #199 ) ) ;
#39 = CARTESIAN_POINT ( 'NONE',  ( 2.926537771733875278E-14, -4.137453937174808945E-16, 8.381937314617163182 ) ) ;
#40 = VERTEX_POINT ( 'NONE', #119 ) ;
#41 = DIRECTION ( 'NONE',  ( 1.000000000000000000, 0.0000000000000000000, -3.491130995403324278E-15 ) ) ;
#42 = CALENDAR_DATE ( 2021, 12, 11 ) ;
#43 = CIRCLE ( 'NONE', #86, 1.250000000000000000 ) ;
#44 = PERSON_AND_ORGANIZATION ( #32, #64 ) ;
#45 = CC_DESIGN_DATE_AND_TIME_ASSIGNMENT ( #83, #102, ( #202 ) ) ;
#46 = PERSON_AND_ORGANIZATION_ROLE ( 'design_supplier' ) ;
#47 =( NAMED_UNIT ( * ) PLANE_ANGLE_UNIT ( ) SI_UNIT ( $, .RADIAN. ) );
#48 = EDGE_LOOP ( 'NONE', ( #166 ) ) ;
#49 = EDGE_LOOP ( 'NONE', ( #183 ) ) ;
#50 = CC_DESIGN_APPROVAL ( #200, ( #202 ) ) ;
#51 = EDGE_LOOP ( 'NONE', ( #107 ) ) ;
#52 = EDGE_CURVE ( 'NONE', #192, #192, #207, .T. ) ;
#53 = CARTESIAN_POINT ( 'NONE',  ( 1.731774744066194397E-13, -6.074248123770872657E-15, 49.60000000000000853 ) ) ;
#54 = DIRECTION ( 'NONE',  ( 0.0000000000000000000, 1.000000000000000000, 0.0000000000000000000 ) ) ;
#55 = CARTESIAN_POINT ( 'NONE',  ( 1.745740669421566362E-14, -6.116987915908739766E-16, 4.999999999999999112 ) ) ;
#56 = AXIS2_PLACEMENT_3D ( 'NONE', #53, #167, #151 ) ;
#57 = FACE_OUTER_BOUND ( 'NONE', #165, .T. ) ;
#58 = DIRECTION ( 'NONE',  ( -3.491481338843133355E-15, 1.224646799147353207E-16, -1.000000000000000000 ) ) ;
#59 = CARTESIAN_POINT ( 'NONE',  ( 2.926537771733875278E-14, 1.999999999999996669, 8.381937314617163182 ) ) ;
#60 = CARTESIAN_POINT ( 'NONE',  ( 1.731774744066194397E-13, 1.999999999999988010, 49.60000000000000853 ) ) ;
#61 = DATE_AND_TIME ( #65, #62 ) ;
#62 = LOCAL_TIME ( 8, 8, 19.00000000000000000, #196 ) ;
#63 = PERSON_AND_ORGANIZATION ( #32, #64 ) ;
#64 = ORGANIZATION ( 'UNSPECIFIED', 'UNSPECIFIED', '' ) ;
#65 = CALENDAR_DATE ( 2021, 12, 11 ) ;
#66 = CIRCLE ( 'NONE', #236, 1.250000000000000000 ) ;
#67 = AXIS2_PLACEMENT_3D ( 'NONE', #226, #18, #76 ) ;
#68 = ADVANCED_FACE ( 'NONE', ( #173 ), #94, .T. ) ;
#69 = EDGE_LOOP ( 'NONE', ( #3 ) ) ;
#70 = DIRECTION ( 'NONE',  ( 3.491481338843133355E-15, -1.223397583181748052E-16, 1.000000000000000000 ) ) ;
#71 = DIRECTION ( 'NONE',  ( -4.333047325933290895E-31, -1.000000000000000000, -1.223397583181748052E-16 ) ) ;
#72 = AXIS2_PLACEMENT_3D ( 'NONE', #39, #189, #113 ) ;
#73 = FACE_OUTER_BOUND ( 'NONE', #38, .T. ) ;
#74 = CARTESIAN_POINT ( 'NONE',  ( 1.745740669421566362E-14, 0.0000000000000000000, 4.999999999999999112 ) ) ;
#75 = PRODUCT_DEFINITION_SHAPE ( 'NONE', 'NONE',  #33 ) ;
#76 = DIRECTION ( 'NONE',  ( 1.000000000000000000, 0.0000000000000000000, -3.491130995403324278E-15 ) ) ;
#77 = CIRCLE ( 'NONE', #26, 1.599999999999996314 ) ;
#78 = CC_DESIGN_PERSON_AND_ORGANIZATION_ASSIGNMENT ( #162, #159, ( #158 ) ) ;
#79 = CARTESIAN_POINT ( 'NONE',  ( 1.745740669421566362E-14, -1.250000000000000666, 4.999999999999999112 ) ) ;
#80 = COORDINATED_UNIVERSAL_TIME_OFFSET ( 1, 0, .AHEAD. ) ;
#81 = DATE_AND_TIME ( #144, #29 ) ;
#82 = APPLICATION_CONTEXT ( 'configuration controlled 3d designs of mechanical parts and assemblies' ) ;
#83 = DATE_AND_TIME ( #104, #222 ) ;
#84 = CARTESIAN_POINT ( 'NONE',  ( 1.731774744066194397E-13, -6.074248123770872657E-15, 49.60000000000000853 ) ) ;
#85 = DATE_AND_TIME ( #15, #241 ) ;
#86 = AXIS2_PLACEMENT_3D ( 'NONE', #228, #70, #223 ) ;
#87 = MANIFOLD_SOLID_BREP ( 'Corps-Déplacer/Copier1[2]', #10 ) ;
#88 = ADVANCED_FACE ( 'NONE', ( #240 ), #2, .F. ) ;
#89 = ORIENTED_EDGE ( 'NONE', *, *, #220, .T. ) ;
#90 = ORIENTED_EDGE ( 'NONE', *, *, #98, .T. ) ;
#91 = MANIFOLD_SOLID_BREP ( 'Corps-Déplacer/Copier1[1]', #145 ) ;
#92 = FACE_OUTER_BOUND ( 'NONE', #48, .T. ) ;
#93 = CC_DESIGN_PERSON_AND_ORGANIZATION_ASSIGNMENT ( #176, #12, ( #202 ) ) ;
#94 = PLANE ( 'NONE',  #121 ) ;
#95 = TOROIDAL_SURFACE ( 'NONE', #233, 9.250000000000000000, 8.000000000000000000 ) ;
#96 = ORIENTED_EDGE ( 'NONE', *, *, #133, .T. ) ;
#97 = CARTESIAN_POINT ( 'NONE',  ( 1.745740669421566678E-13, 1.199807826129474181E-32, 50.00000000000000000 ) ) ;
#98 = EDGE_CURVE ( 'NONE', #40, #40, #184, .T. ) ;
#99 = APPROVAL_PERSON_ORGANIZATION ( #160, #229, #215 ) ;
#100 = VERTEX_POINT ( 'NONE', #24 ) ;
#101 = PERSON_AND_ORGANIZATION ( #32, #64 ) ;
#102 = DATE_TIME_ROLE ( 'classification_date' ) ;
#103 = EDGE_CURVE ( 'NONE', #100, #100, #77, .T. ) ;
#104 = CALENDAR_DATE ( 2021, 12, 11 ) ;
#105 = CARTESIAN_POINT ( 'NONE',  ( 1.250000000000000444, 0.0000000000000000000, 0.09999999999999563405 ) ) ;
#106 = PERSON_AND_ORGANIZATION_ROLE ( 'creator' ) ;
#107 = ORIENTED_EDGE ( 'NONE', *, *, #52, .T. ) ;
#108 = EDGE_LOOP ( 'NONE', ( #238 ) ) ;
#109 = CIRCLE ( 'NONE', #72, 1.999999999999997113 ) ;
#110 = ADVANCED_FACE ( 'NONE', ( #92, #57 ), #95, .F. ) ;
#111 = FACE_OUTER_BOUND ( 'NONE', #190, .T. ) ;
#112 = DIRECTION ( 'NONE',  ( 0.0000000000000000000, -1.000000000000000000, 0.0000000000000000000 ) ) ;
#113 = DIRECTION ( 'NONE',  ( 0.0000000000000000000, 1.000000000000000000, 0.0000000000000000000 ) ) ;
#114 = EDGE_LOOP ( 'NONE', ( #90 ) ) ;
#115 = FACE_OUTER_BOUND ( 'NONE', #16, .T. ) ;
#116 = DIRECTION ( 'NONE',  ( -3.491481338843133355E-15, 1.224646799147353207E-16, -1.000000000000000000 ) ) ;
#117 = APPROVAL_PERSON_ORGANIZATION ( #101, #200, #195 ) ;
#118 = PERSON_AND_ORGANIZATION ( #32, #64 ) ;
#119 = CARTESIAN_POINT ( 'NONE',  ( 1.149999999999999689, 0.0000000000000000000, -4.028756066825671375E-15 ) ) ;
#120 = APPROVAL_STATUS ( 'not_yet_approved' ) ;
#121 = AXIS2_PLACEMENT_3D ( 'NONE', #170, #154, #211 ) ;
#122 = PERSON_AND_ORGANIZATION ( #32, #64 ) ;
#123 = DIRECTION ( 'NONE',  ( 0.0000000000000000000, 1.000000000000000000, 0.0000000000000000000 ) ) ;
#124 = EDGE_CURVE ( 'NONE', #231, #231, #109, .T. ) ;
#125 = UNCERTAINTY_MEASURE_WITH_UNIT (LENGTH_MEASURE( 1.000000000000000082E-05 ), #182, 'distance_accuracy_value', 'NONE');
#126 = EDGE_CURVE ( 'NONE', #8, #8, #43, .T. ) ;
#127 = CONICAL_SURFACE ( 'NONE', #67, 1.250000000000000000, 0.7853981633974495002 ) ;
#128 = CC_DESIGN_APPROVAL ( #139, ( #33 ) ) ;
#129 = CARTESIAN_POINT ( 'NONE',  ( 0.0000000000000000000, 0.0000000000000000000, 0.0000000000000000000 ) ) ;
#130 = CC_DESIGN_PERSON_AND_ORGANIZATION_ASSIGNMENT ( #63, #46, ( #158 ) ) ;
#131 = FACE_OUTER_BOUND ( 'NONE', #49, .T. ) ;
#132 = DIRECTION ( 'NONE',  ( 1.000000000000000000, 0.0000000000000000000, -3.491481338843133750E-15 ) ) ;
#133 = EDGE_CURVE ( 'NONE', #235, #235, #1, .T. ) ;
#134 = DIRECTION ( 'NONE',  ( 3.491481338843133355E-15, -1.223397583181748052E-16, 1.000000000000000000 ) ) ;
#135 = DIRECTION ( 'NONE',  ( 4.275831445896958607E-31, 1.000000000000000000, 1.224646799147353207E-16 ) ) ;
#136 = VERTEX_POINT ( 'NONE', #105 ) ;
#137 = CC_DESIGN_SECURITY_CLASSIFICATION ( #202, ( #158 ) ) ;
#138 = DIRECTION ( 'NONE',  ( 0.0000000000000000000, 0.0000000000000000000, 1.000000000000000000 ) ) ;
#139 = APPROVAL ( #157, 'UNSPECIFIED' ) ;
#140 = AXIS2_PLACEMENT_3D ( 'NONE', #206, #187, #212 ) ;
#141 = PERSON_AND_ORGANIZATION_ROLE ( 'design_owner' ) ;
#142 = CARTESIAN_POINT ( 'NONE',  ( 1.745740669421566362E-14, -1.250000000000000666, 4.999999999999999112 ) ) ;
#143 = DESIGN_CONTEXT ( 'detailed design', #82, 'design' ) ;
#144 = CALENDAR_DATE ( 2021, 12, 11 ) ;
#145 = CLOSED_SHELL ( 'NONE', ( #152, #180, #88, #110, #147 ) ) ;
#146 = ORIENTED_EDGE ( 'NONE', *, *, #126, .F. ) ;
#147 = ADVANCED_FACE ( 'NONE', ( #73 ), #172, .F. ) ;
#148 = ORIENTED_EDGE ( 'NONE', *, *, #124, .T. ) ;
#149 = CARTESIAN_POINT ( 'NONE',  ( -4.731839565957903391E-32, 0.0000000000000000000, -1.355252715606880543E-17 ) ) ;
#150 = ORIENTED_EDGE ( 'NONE', *, *, #98, .F. ) ;
#151 = DIRECTION ( 'NONE',  ( 0.0000000000000000000, 1.000000000000000000, 0.0000000000000000000 ) ) ;
#152 = ADVANCED_FACE ( 'NONE', ( #23, #188 ), #6, .T. ) ;
#153 = ADVANCED_BREP_SHAPE_REPRESENTATION ( '56307', ( #91, #87, #210 ), #224 ) ;
#154 = DIRECTION ( 'NONE',  ( 3.491481338843133355E-15, -1.224646799147353207E-16, 1.000000000000000000 ) ) ;
#155 = DIRECTION ( 'NONE',  ( 4.275831445896958607E-31, 1.000000000000000000, 1.224646799147353207E-16 ) ) ;
#156 = FACE_OUTER_BOUND ( 'NONE', #219, .T. ) ;
#157 = APPROVAL_STATUS ( 'not_yet_approved' ) ;
#158 = PRODUCT_DEFINITION_FORMATION_WITH_SPECIFIED_SOURCE ( 'ANY', '', #171, .NOT_KNOWN. ) ;
#159 = PERSON_AND_ORGANIZATION_ROLE ( 'creator' ) ;
#160 = PERSON_AND_ORGANIZATION ( #32, #64 ) ;
#161 = FACE_BOUND ( 'NONE', #108, .T. ) ;
#162 = PERSON_AND_ORGANIZATION ( #32, #64 ) ;
#163 = AXIS2_PLACEMENT_3D ( 'NONE', #55, #134, #112 ) ;
#164 = AXIS2_PLACEMENT_3D ( 'NONE', #243, #168, #208 ) ;
#165 = EDGE_LOOP ( 'NONE', ( #96 ) ) ;
#166 = ORIENTED_EDGE ( 'NONE', *, *, #124, .F. ) ;
#167 = DIRECTION ( 'NONE',  ( -3.491481338843133355E-15, 1.224646799147353207E-16, -1.000000000000000000 ) ) ;
#168 = DIRECTION ( 'NONE',  ( 3.491481338843133355E-15, -1.223397583181748052E-16, 1.000000000000000000 ) ) ;
#169 = AXIS2_PLACEMENT_3D ( 'NONE', #84, #116, #123 ) ;
#170 = CARTESIAN_POINT ( 'NONE',  ( 1.745740669421566678E-14, 1.499759782661856787E-32, 5.000000000000000000 ) ) ;
#171 = PRODUCT ( '56307', '56307', '', ( #30 ) ) ;
#172 = PLANE ( 'NONE',  #140 ) ;
#173 = FACE_OUTER_BOUND ( 'NONE', #69, .T. ) ;
#174 = CONICAL_SURFACE ( 'NONE', #169, 1.999999999999994005, 0.7853981633974482790 ) ;
#175 = CARTESIAN_POINT ( 'NONE',  ( 3.491481338843133355E-16, 0.0000000000000000000, 0.1000000000000000056 ) ) ;
#176 = PERSON_AND_ORGANIZATION ( #32, #64 ) ;
#177 = CC_DESIGN_DATE_AND_TIME_ASSIGNMENT ( #85, #217, ( #33 ) ) ;
#178 = COORDINATED_UNIVERSAL_TIME_OFFSET ( 1, 0, .AHEAD. ) ;
#179 = APPROVAL_DATE_TIME ( #61, #139 ) ;
#180 = ADVANCED_FACE ( 'NONE', ( #161, #156 ), #174, .T. ) ;
#181 = COORDINATED_UNIVERSAL_TIME_OFFSET ( 1, 0, .AHEAD. ) ;
#182 =( LENGTH_UNIT ( ) NAMED_UNIT ( * ) SI_UNIT ( .MILLI., .METRE. ) );
#183 = ORIENTED_EDGE ( 'NONE', *, *, #220, .F. ) ;
#184 = CIRCLE ( 'NONE', #17, 1.149999999999999689 ) ;
#185 = ORIENTED_EDGE ( 'NONE', *, *, #52, .F. ) ;
#186 = DIRECTION ( 'NONE',  ( -3.491481338843133355E-15, 1.224646799147353207E-16, -1.000000000000000000 ) ) ;
#187 = DIRECTION ( 'NONE',  ( 3.491481338843133355E-15, -1.224646799147353207E-16, 1.000000000000000000 ) ) ;
#188 = FACE_OUTER_BOUND ( 'NONE', #239, .T. ) ;
#189 = DIRECTION ( 'NONE',  ( 3.491481338843133355E-15, -1.223397583181748052E-16, 1.000000000000000000 ) ) ;
#190 = EDGE_LOOP ( 'NONE', ( #89 ) ) ;
#191 = AXIS2_PLACEMENT_3D ( 'NONE', #97, #58, #37 ) ;
#192 = VERTEX_POINT ( 'NONE', #60 ) ;
#193 = CARTESIAN_POINT ( 'NONE',  ( 0.0000000000000000000, 0.0000000000000000000, 0.0000000000000000000 ) ) ;
#194 = FACE_OUTER_BOUND ( 'NONE', #204, .T. ) ;
#195 = APPROVAL_ROLE ( '' ) ;
#196 = COORDINATED_UNIVERSAL_TIME_OFFSET ( 1, 0, .AHEAD. ) ;
#197 = APPROVAL_STATUS ( 'not_yet_approved' ) ;
#198 =( NAMED_UNIT ( * ) SI_UNIT ( $, .STERADIAN. ) SOLID_ANGLE_UNIT ( ) );
#199 = ORIENTED_EDGE ( 'NONE', *, *, #133, .F. ) ;
#200 = APPROVAL ( #120, 'UNSPECIFIED' ) ;
#201 = ORIENTED_EDGE ( 'NONE', *, *, #103, .F. ) ;
#202 = SECURITY_CLASSIFICATION ( '', '', #25 ) ;
#203 = ADVANCED_FACE ( 'NONE', ( #194 ), #27, .T. ) ;
#204 = EDGE_LOOP ( 'NONE', ( #150 ) ) ;
#205 = CYLINDRICAL_SURFACE ( 'NONE', #164, 1.250000000000000000 ) ;
#206 = CARTESIAN_POINT ( 'NONE',  ( 1.745740669421566678E-14, 1.499759782661856787E-32, 5.000000000000000000 ) ) ;
#207 = CIRCLE ( 'NONE', #56, 1.999999999999994005 ) ;
#208 = DIRECTION ( 'NONE',  ( -4.271469831664863477E-31, -1.000000000000000000, -1.223397583181748052E-16 ) ) ;
#209 = LOCAL_TIME ( 8, 8, 19.00000000000000000, #181 ) ;
#210 = AXIS2_PLACEMENT_3D ( 'NONE', #193, #138, #216 ) ;
#211 = DIRECTION ( 'NONE',  ( -4.275831445896958607E-31, -1.000000000000000000, -1.224646799147353207E-16 ) ) ;
#212 = DIRECTION ( 'NONE',  ( -4.275831445896958607E-31, -1.000000000000000000, -1.224646799147353207E-16 ) ) ;
#213 = DIRECTION ( 'NONE',  ( -3.491481338843133355E-15, 1.224646799147353207E-16, -1.000000000000000000 ) ) ;
#214 = CARTESIAN_POINT ( 'NONE',  ( -4.275831445896957731E-31, 1.499759782661857608E-32, -1.224646799147353207E-16 ) ) ;
#215 = APPROVAL_ROLE ( '' ) ;
#216 = DIRECTION ( 'NONE',  ( 1.000000000000000000, 0.0000000000000000000, 0.0000000000000000000 ) ) ;
#217 = DATE_TIME_ROLE ( 'creation_date' ) ;
#218 = APPROVAL_ROLE ( '' ) ;
#219 = EDGE_LOOP ( 'NONE', ( #185 ) ) ;
#220 = EDGE_CURVE ( 'NONE', #136, #136, #66, .T. ) ;
#221 = APPLICATION_CONTEXT ( 'configuration controlled 3d designs of mechanical parts and assemblies' ) ;
#222 = LOCAL_TIME ( 8, 8, 19.00000000000000000, #80 ) ;
#223 = DIRECTION ( 'NONE',  ( 0.0000000000000000000, -1.000000000000000000, 0.0000000000000000000 ) ) ;
#224 =( GEOMETRIC_REPRESENTATION_CONTEXT ( 3 ) GLOBAL_UNCERTAINTY_ASSIGNED_CONTEXT ( ( #125 ) ) GLOBAL_UNIT_ASSIGNED_CONTEXT ( ( #182, #47, #198 ) ) REPRESENTATION_CONTEXT ( 'NONE', 'WORKASPACE' ) );
#225 = CC_DESIGN_PERSON_AND_ORGANIZATION_ASSIGNMENT ( #122, #106, ( #33 ) ) ;
#226 = CARTESIAN_POINT ( 'NONE',  ( 3.491481338843133355E-16, 0.0000000000000000000, 0.1000000000000000056 ) ) ;
#227 = CARTESIAN_POINT ( 'NONE',  ( 1.745740669421566678E-13, -6.123233995736766085E-15, 50.00000000000000000 ) ) ;
#228 = CARTESIAN_POINT ( 'NONE',  ( 1.745740669421566362E-14, -6.116987915908739766E-16, 4.999999999999999112 ) ) ;
#229 = APPROVAL ( #197, 'UNSPECIFIED' ) ;
#230 = DIRECTION ( 'NONE',  ( 3.491481338843133355E-15, -0.0000000000000000000, 1.000000000000000000 ) ) ;
#231 = VERTEX_POINT ( 'NONE', #59 ) ;
#232 = DATE_AND_TIME ( #42, #209 ) ;
#233 = AXIS2_PLACEMENT_3D ( 'NONE', #74, #22, #71 ) ;
#234 = APPROVAL_DATE_TIME ( #81, #200 ) ;
#235 = VERTEX_POINT ( 'NONE', #142 ) ;
#236 = AXIS2_PLACEMENT_3D ( 'NONE', #175, #230, #41 ) ;
#237 = CC_DESIGN_APPROVAL ( #229, ( #158 ) ) ;
#238 = ORIENTED_EDGE ( 'NONE', *, *, #103, .T. ) ;
#239 = EDGE_LOOP ( 'NONE', ( #148 ) ) ;
#240 = FACE_OUTER_BOUND ( 'NONE', #20, .T. ) ;
#241 = LOCAL_TIME ( 8, 8, 19.00000000000000000, #28 ) ;
#242 = CC_DESIGN_PERSON_AND_ORGANIZATION_ASSIGNMENT ( #118, #141, ( #171 ) ) ;
#243 = CARTESIAN_POINT ( 'NONE',  ( 0.0000000000000000000, 0.0000000000000000000, 0.0000000000000000000 ) ) ;
ENDSEC;
END-ISO-10303-21;
