ISO-10303-21;
HEADER;
FILE_DESCRIPTION (( 'STEP AP203' ),
    '1' );
FILE_NAME ('56306.step',
    '2021-11-12T07:08:19',
    ( '' ),
    ( '' ),
    'SwSTEP 2.0',
    'SolidWorks 2019',
    '' );
FILE_SCHEMA (( 'CONFIG_CONTROL_DESIGN' ));
ENDSEC;

DATA;
#1 = FACE_OUTER_BOUND ( 'NONE', #76, .T. ) ;
#2 = CIRCLE ( 'NONE', #75, 1.000000000000000000 ) ;
#3 = AXIS2_PLACEMENT_3D ( 'NONE', #242, #99, #154 ) ;
#4 = ADVANCED_FACE ( 'NONE', ( #52 ), #7, .F. ) ;
#5 = CARTESIAN_POINT ( 'NONE',  ( 1.396592535537253027E-14, -1.000000000000001776, 3.999999999999999112 ) ) ;
#6 = CC_DESIGN_SECURITY_CLASSIFICATION ( #196, ( #128 ) ) ;
#7 = PLANE ( 'NONE',  #104 ) ;
#8 = CARTESIAN_POINT ( 'NONE',  ( 1.745740669421566678E-13, -6.123233995736766085E-15, 50.00000000000000000 ) ) ;
#9 = EDGE_CURVE ( 'NONE', #201, #201, #2, .T. ) ;
#10 = VERTEX_POINT ( 'NONE', #121 ) ;
#11 = UNCERTAINTY_MEASURE_WITH_UNIT (LENGTH_MEASURE( 1.000000000000000082E-05 ), #119, 'distance_accuracy_value', 'NONE');
#12 = PRODUCT ( '56306', '56306', '', ( #240 ) ) ;
#13 = APPROVAL_ROLE ( '' ) ;
#14 = APPROVAL ( #54, 'UNSPECIFIED' ) ;
#15 = EDGE_LOOP ( 'NONE', ( #141 ) ) ;
#16 = DIRECTION ( 'NONE',  ( 4.275831445896958607E-31, 1.000000000000000000, 1.224646799147353207E-16 ) ) ;
#17 = AXIS2_PLACEMENT_3D ( 'NONE', #8, #180, #105 ) ;
#18 = APPLICATION_PROTOCOL_DEFINITION ( 'international standard', 'config_control_design', 1994, #153 ) ;
#19 = ORIENTED_EDGE ( 'NONE', *, *, #43, .T. ) ;
#20 = PERSON_AND_ORGANIZATION ( #62, #113 ) ;
#21 = FACE_OUTER_BOUND ( 'NONE', #92, .T. ) ;
#22 = PERSON_AND_ORGANIZATION ( #62, #113 ) ;
#23 = CALENDAR_DATE ( 2021, 12, 11 ) ;
#24 = FACE_BOUND ( 'NONE', #106, .T. ) ;
#25 = DIRECTION ( 'NONE',  ( 0.0000000000000000000, 1.000000000000000000, 0.0000000000000000000 ) ) ;
#26 =( NAMED_UNIT ( * ) SI_UNIT ( $, .STERADIAN. ) SOLID_ANGLE_UNIT ( ) );
#27 = EDGE_CURVE ( 'NONE', #232, #232, #45, .T. ) ;
#28 = AXIS2_PLACEMENT_3D ( 'NONE', #171, #191, #25 ) ;
#29 = DIRECTION ( 'NONE',  ( 1.000000000000000000, 0.0000000000000000000, -3.496552006265751800E-15 ) ) ;
#30 = DIRECTION ( 'NONE',  ( 4.275831445896958607E-31, 1.000000000000000000, 1.224646799147353207E-16 ) ) ;
#31 = ADVANCED_FACE ( 'NONE', ( #211 ), #122, .F. ) ;
#32 = AXIS2_PLACEMENT_3D ( 'NONE', #158, #37, #151 ) ;
#33 = ADVANCED_FACE ( 'NONE', ( #229, #49 ), #230, .T. ) ;
#34 = PERSON_AND_ORGANIZATION ( #62, #113 ) ;
#35 = DESIGN_CONTEXT ( 'detailed design', #153, 'design' ) ;
#36 = CYLINDRICAL_SURFACE ( 'NONE', #236, 1.999999999999997113 ) ;
#37 = DIRECTION ( 'NONE',  ( 0.0000000000000000000, 0.0000000000000000000, 1.000000000000000000 ) ) ;
#38 = ORIENTED_EDGE ( 'NONE', *, *, #27, .F. ) ;
#39 = CARTESIAN_POINT ( 'NONE',  ( 1.745740669421566678E-13, 1.599999999999990319, 50.00000000000000000 ) ) ;
#40 = AXIS2_PLACEMENT_3D ( 'NONE', #176, #159, #221 ) ;
#41 = DATE_AND_TIME ( #195, #163 ) ;
#42 = ORIENTED_EDGE ( 'NONE', *, *, #145, .F. ) ;
#43 = EDGE_CURVE ( 'NONE', #109, #109, #185, .T. ) ;
#44 = DIRECTION ( 'NONE',  ( -3.491481338843133355E-15, 1.224646799147353207E-16, -1.000000000000000000 ) ) ;
#45 = CIRCLE ( 'NONE', #17, 1.599999999999996314 ) ;
#46 = DIRECTION ( 'NONE',  ( 0.0000000000000000000, -1.000000000000000000, 0.0000000000000000000 ) ) ;
#47 = EDGE_CURVE ( 'NONE', #178, #178, #84, .T. ) ;
#48 = PLANE ( 'NONE',  #40 ) ;
#49 = FACE_OUTER_BOUND ( 'NONE', #184, .T. ) ;
#50 = MANIFOLD_SOLID_BREP ( 'Corps-Déplacer/Copier1[2]', #175 ) ;
#51 = AXIS2_PLACEMENT_3D ( 'NONE', #117, #223, #67 ) ;
#52 = FACE_OUTER_BOUND ( 'NONE', #216, .T. ) ;
#53 = PRODUCT_RELATED_PRODUCT_CATEGORY ( 'detail', '', ( #12 ) ) ;
#54 = APPROVAL_STATUS ( 'not_yet_approved' ) ;
#55 = DATE_AND_TIME ( #131, #192 ) ;
#56 = EDGE_LOOP ( 'NONE', ( #59 ) ) ;
#57 = CC_DESIGN_APPROVAL ( #14, ( #128 ) ) ;
#58 = APPROVAL_DATE_TIME ( #41, #14 ) ;
#59 = ORIENTED_EDGE ( 'NONE', *, *, #102, .F. ) ;
#60 = PERSON_AND_ORGANIZATION_ROLE ( 'design_supplier' ) ;
#61 = CC_DESIGN_DATE_AND_TIME_ASSIGNMENT ( #186, #233, ( #118 ) ) ;
#62 = PERSON ( 'UNSPECIFIED', 'UNSPECIFIED', 'UNSPECIFIED', ('UNSPECIFIED'), ('UNSPECIFIED'), ('UNSPECIFIED') ) ;
#63 = CARTESIAN_POINT ( 'NONE',  ( 2.748837443430593632E-14, 1.999999999999996669, 7.872983346207408140 ) ) ;
#64 = COORDINATED_UNIVERSAL_TIME_OFFSET ( 1, 0, .AHEAD. ) ;
#65 = DIRECTION ( 'NONE',  ( 0.0000000000000000000, -1.000000000000000000, 0.0000000000000000000 ) ) ;
#66 = DIRECTION ( 'NONE',  ( 3.491481338843133355E-15, -1.223397583181748052E-16, 1.000000000000000000 ) ) ;
#67 = DIRECTION ( 'NONE',  ( 1.000000000000000000, 0.0000000000000000000, -3.496552006265751800E-15 ) ) ;
#68 = DIRECTION ( 'NONE',  ( 1.000000000000000000, 0.0000000000000000000, -3.491481338843133355E-15 ) ) ;
#69 = FACE_OUTER_BOUND ( 'NONE', #143, .T. ) ;
#70 = APPROVAL_PERSON_ORGANIZATION ( #20, #181, #188 ) ;
#71 = DIRECTION ( 'NONE',  ( 3.491481338843133355E-15, -0.0000000000000000000, 1.000000000000000000 ) ) ;
#72 = CARTESIAN_POINT ( 'NONE',  ( 1.396592535537253342E-14, 1.499759782661856787E-32, 4.000000000000000000 ) ) ;
#73 = LOCAL_TIME ( 8, 8, 19.00000000000000000, #107 ) ;
#74 = ADVANCED_BREP_SHAPE_REPRESENTATION ( '56306', ( #204, #50, #32 ), #173 ) ;
#75 = AXIS2_PLACEMENT_3D ( 'NONE', #193, #71, #29 ) ;
#76 = EDGE_LOOP ( 'NONE', ( #213 ) ) ;
#77 = DATE_AND_TIME ( #156, #73 ) ;
#78 = EDGE_LOOP ( 'NONE', ( #130 ) ) ;
#79 = PERSON_AND_ORGANIZATION ( #62, #113 ) ;
#80 = COORDINATED_UNIVERSAL_TIME_OFFSET ( 1, 0, .AHEAD. ) ;
#81 = PERSON_AND_ORGANIZATION ( #62, #113 ) ;
#82 = PLANE ( 'NONE',  #108 ) ;
#83 = DIRECTION ( 'NONE',  ( -4.271469831664864353E-31, -1.000000000000000000, -1.223397583181748052E-16 ) ) ;
#84 = CIRCLE ( 'NONE', #165, 1.999999999999997113 ) ;
#85 = CARTESIAN_POINT ( 'NONE',  ( 0.0000000000000000000, 0.0000000000000000000, 0.0000000000000000000 ) ) ;
#86 = AXIS2_PLACEMENT_3D ( 'NONE', #116, #135, #174 ) ;
#87 = CARTESIAN_POINT ( 'NONE',  ( 1.745740669421566678E-13, 1.199807826129474181E-32, 50.00000000000000000 ) ) ;
#88 = SECURITY_CLASSIFICATION_LEVEL ( 'unclassified' ) ;
#89 = EDGE_LOOP ( 'NONE', ( #202 ) ) ;
#90 = CLOSED_SHELL ( 'NONE', ( #237, #210, #31, #124, #4 ) ) ;
#91 = APPLICATION_PROTOCOL_DEFINITION ( 'international standard', 'config_control_design', 1994, #177 ) ;
#92 = EDGE_LOOP ( 'NONE', ( #19 ) ) ;
#93 = ADVANCED_FACE ( 'NONE', ( #69 ), #82, .T. ) ;
#94 = COORDINATED_UNIVERSAL_TIME_OFFSET ( 1, 0, .AHEAD. ) ;
#95 = ADVANCED_FACE ( 'NONE', ( #98 ), #48, .T. ) ;
#96 = FACE_OUTER_BOUND ( 'NONE', #168, .T. ) ;
#97 = CARTESIAN_POINT ( 'NONE',  ( 1.396592535537253027E-14, -4.893590332726991221E-16, 3.999999999999999112 ) ) ;
#98 = FACE_OUTER_BOUND ( 'NONE', #56, .T. ) ;
#99 = DIRECTION ( 'NONE',  ( -3.491481338843133355E-15, 1.224646799147353207E-16, -1.000000000000000000 ) ) ;
#100 = DIRECTION ( 'NONE',  ( -4.275831445896958607E-31, -1.000000000000000000, -1.224646799147353207E-16 ) ) ;
#101 = AXIS2_PLACEMENT_3D ( 'NONE', #189, #208, #68 ) ;
#102 = EDGE_CURVE ( 'NONE', #157, #157, #212, .T. ) ;
#103 = CONICAL_SURFACE ( 'NONE', #3, 1.999999999999994005, 0.7853981633974482790 ) ;
#104 = AXIS2_PLACEMENT_3D ( 'NONE', #72, #123, #227 ) ;
#105 = DIRECTION ( 'NONE',  ( 0.0000000000000000000, 1.000000000000000000, 0.0000000000000000000 ) ) ;
#106 = EDGE_LOOP ( 'NONE', ( #127 ) ) ;
#107 = COORDINATED_UNIVERSAL_TIME_OFFSET ( 1, 0, .AHEAD. ) ;
#108 = AXIS2_PLACEMENT_3D ( 'NONE', #115, #137, #100 ) ;
#109 = VERTEX_POINT ( 'NONE', #147 ) ;
#110 = ORIENTED_EDGE ( 'NONE', *, *, #47, .T. ) ;
#111 = DIRECTION ( 'NONE',  ( 3.491481338843133355E-15, -1.223397583181748052E-16, 1.000000000000000000 ) ) ;
#112 = SHAPE_DEFINITION_REPRESENTATION ( #146, #74 ) ;
#113 = ORGANIZATION ( 'UNSPECIFIED', 'UNSPECIFIED', '' ) ;
#114 = PERSON_AND_ORGANIZATION ( #62, #113 ) ;
#115 = CARTESIAN_POINT ( 'NONE',  ( 1.396592535537253342E-14, 1.499759782661856787E-32, 4.000000000000000000 ) ) ;
#116 = CARTESIAN_POINT ( 'NONE',  ( 1.396592535537253027E-14, 0.0000000000000000000, 3.999999999999999112 ) ) ;
#117 = CARTESIAN_POINT ( 'NONE',  ( 3.491481338843133355E-16, 0.0000000000000000000, 0.1000000000000000056 ) ) ;
#118 = PRODUCT_DEFINITION ( 'UNKNOWN', '', #128, #35 ) ;
#119 =( LENGTH_UNIT ( ) NAMED_UNIT ( * ) SI_UNIT ( .MILLI., .METRE. ) );
#120 = AXIS2_PLACEMENT_3D ( 'NONE', #197, #111, #65 ) ;
#121 = CARTESIAN_POINT ( 'NONE',  ( 1.396592535537253027E-14, -1.000000000000001776, 3.999999999999999112 ) ) ;
#122 = PLANE ( 'NONE',  #142 ) ;
#123 = DIRECTION ( 'NONE',  ( 3.491481338843133355E-15, -1.224646799147353207E-16, 1.000000000000000000 ) ) ;
#124 = ADVANCED_FACE ( 'NONE', ( #1, #224 ), #228, .F. ) ;
#125 = APPROVAL_ROLE ( '' ) ;
#126 = CC_DESIGN_PERSON_AND_ORGANIZATION_ASSIGNMENT ( #34, #60, ( #128 ) ) ;
#127 = ORIENTED_EDGE ( 'NONE', *, *, #27, .T. ) ;
#128 = PRODUCT_DEFINITION_FORMATION_WITH_SPECIFIED_SOURCE ( 'ANY', '', #12, .NOT_KNOWN. ) ;
#129 = PERSON_AND_ORGANIZATION ( #62, #113 ) ;
#130 = ORIENTED_EDGE ( 'NONE', *, *, #9, .T. ) ;
#131 = CALENDAR_DATE ( 2021, 12, 11 ) ;
#132 = DATE_TIME_ROLE ( 'classification_date' ) ;
#133 = APPROVAL_PERSON_ORGANIZATION ( #114, #14, #125 ) ;
#134 = FACE_OUTER_BOUND ( 'NONE', #89, .T. ) ;
#135 = DIRECTION ( 'NONE',  ( 3.491481338843133355E-15, -1.223397583181748052E-16, 1.000000000000000000 ) ) ;
#136 = APPROVAL ( #238, 'UNSPECIFIED' ) ;
#137 = DIRECTION ( 'NONE',  ( 3.491481338843133355E-15, -1.224646799147353207E-16, 1.000000000000000000 ) ) ;
#138 = VERTEX_POINT ( 'NONE', #5 ) ;
#139 = CC_DESIGN_DATE_AND_TIME_ASSIGNMENT ( #217, #132, ( #196 ) ) ;
#140 = LOCAL_TIME ( 8, 8, 19.00000000000000000, #64 ) ;
#141 = ORIENTED_EDGE ( 'NONE', *, *, #145, .T. ) ;
#142 = AXIS2_PLACEMENT_3D ( 'NONE', #87, #194, #30 ) ;
#143 = EDGE_LOOP ( 'NONE', ( #164 ) ) ;
#144 = CARTESIAN_POINT ( 'NONE',  ( 0.8999999999999998002, 0.0000000000000000000, -3.155885732114888036E-15 ) ) ;
#145 = EDGE_CURVE ( 'NONE', #10, #10, #239, .T. ) ;
#146 = PRODUCT_DEFINITION_SHAPE ( 'NONE', 'NONE',  #118 ) ;
#147 = CARTESIAN_POINT ( 'NONE',  ( 1.731774744066194397E-13, 1.999999999999988010, 49.60000000000000853 ) ) ;
#148 = CC_DESIGN_PERSON_AND_ORGANIZATION_ASSIGNMENT ( #81, #235, ( #118 ) ) ;
#149 = ORIENTED_EDGE ( 'NONE', *, *, #225, .F. ) ;
#150 = APPROVAL_PERSON_ORGANIZATION ( #129, #136, #13 ) ;
#151 = DIRECTION ( 'NONE',  ( 1.000000000000000000, 0.0000000000000000000, 0.0000000000000000000 ) ) ;
#152 = EDGE_LOOP ( 'NONE', ( #183 ) ) ;
#153 = APPLICATION_CONTEXT ( 'configuration controlled 3d designs of mechanical parts and assemblies' ) ;
#154 = DIRECTION ( 'NONE',  ( 0.0000000000000000000, 1.000000000000000000, 0.0000000000000000000 ) ) ;
#155 = PERSON_AND_ORGANIZATION_ROLE ( 'classification_officer' ) ;
#156 = CALENDAR_DATE ( 2021, 12, 11 ) ;
#157 = VERTEX_POINT ( 'NONE', #144 ) ;
#158 = CARTESIAN_POINT ( 'NONE',  ( 0.0000000000000000000, 0.0000000000000000000, 0.0000000000000000000 ) ) ;
#159 = DIRECTION ( 'NONE',  ( -3.491481338843133355E-15, 1.224646799147353207E-16, -1.000000000000000000 ) ) ;
#160 = DIRECTION ( 'NONE',  ( 3.491481338843133355E-15, -1.223397583181748052E-16, 1.000000000000000000 ) ) ;
#161 = FACE_OUTER_BOUND ( 'NONE', #78, .T. ) ;
#162 =( NAMED_UNIT ( * ) PLANE_ANGLE_UNIT ( ) SI_UNIT ( $, .RADIAN. ) );
#163 = LOCAL_TIME ( 8, 8, 19.00000000000000000, #215 ) ;
#164 = ORIENTED_EDGE ( 'NONE', *, *, #225, .T. ) ;
#165 = AXIS2_PLACEMENT_3D ( 'NONE', #207, #160, #241 ) ;
#166 = CARTESIAN_POINT ( 'NONE',  ( 1.000000000000000444, 0.0000000000000000000, 0.09999999999999650835 ) ) ;
#167 = APPROVAL_STATUS ( 'not_yet_approved' ) ;
#168 = EDGE_LOOP ( 'NONE', ( #110 ) ) ;
#169 = PERSON_AND_ORGANIZATION_ROLE ( 'design_owner' ) ;
#170 = APPROVAL_DATE_TIME ( #77, #181 ) ;
#171 = CARTESIAN_POINT ( 'NONE',  ( 1.731774744066194397E-13, -6.074248123770872657E-15, 49.60000000000000853 ) ) ;
#172 = CYLINDRICAL_SURFACE ( 'NONE', #226, 1.000000000000000666 ) ;
#173 =( GEOMETRIC_REPRESENTATION_CONTEXT ( 3 ) GLOBAL_UNCERTAINTY_ASSIGNED_CONTEXT ( ( #11 ) ) GLOBAL_UNIT_ASSIGNED_CONTEXT ( ( #119, #162, #26 ) ) REPRESENTATION_CONTEXT ( 'NONE', 'WORKASPACE' ) );
#174 = DIRECTION ( 'NONE',  ( -4.333952877319592045E-31, -1.000000000000000000, -1.223397583181748052E-16 ) ) ;
#175 = CLOSED_SHELL ( 'NONE', ( #187, #93, #33, #95 ) ) ;
#176 = CARTESIAN_POINT ( 'NONE',  ( -4.275831445896957731E-31, 1.499759782661857608E-32, -1.224646799147353207E-16 ) ) ;
#177 = APPLICATION_CONTEXT ( 'configuration controlled 3d designs of mechanical parts and assemblies' ) ;
#178 = VERTEX_POINT ( 'NONE', #63 ) ;
#179 = CC_DESIGN_PERSON_AND_ORGANIZATION_ASSIGNMENT ( #22, #182, ( #128 ) ) ;
#180 = DIRECTION ( 'NONE',  ( -3.491481338843133355E-15, 1.224646799147353207E-16, -1.000000000000000000 ) ) ;
#181 = APPROVAL ( #167, 'UNSPECIFIED' ) ;
#182 = PERSON_AND_ORGANIZATION_ROLE ( 'creator' ) ;
#183 = ORIENTED_EDGE ( 'NONE', *, *, #102, .T. ) ;
#184 = EDGE_LOOP ( 'NONE', ( #234 ) ) ;
#185 = CIRCLE ( 'NONE', #28, 1.999999999999994005 ) ;
#186 = DATE_AND_TIME ( #198, #200 ) ;
#187 = ADVANCED_FACE ( 'NONE', ( #220, #161 ), #172, .T. ) ;
#188 = APPROVAL_ROLE ( '' ) ;
#189 = CARTESIAN_POINT ( 'NONE',  ( -4.731839565957903391E-32, 0.0000000000000000000, -1.355252715606880543E-17 ) ) ;
#190 = DIRECTION ( 'NONE',  ( 3.491481338843133355E-15, -1.223397583181748052E-16, 1.000000000000000000 ) ) ;
#191 = DIRECTION ( 'NONE',  ( -3.491481338843133355E-15, 1.224646799147353207E-16, -1.000000000000000000 ) ) ;
#192 = LOCAL_TIME ( 8, 8, 19.00000000000000000, #80 ) ;
#193 = CARTESIAN_POINT ( 'NONE',  ( 3.491481338843133355E-16, 0.0000000000000000000, 0.1000000000000000056 ) ) ;
#194 = DIRECTION ( 'NONE',  ( -3.491481338843133355E-15, 1.224646799147353207E-16, -1.000000000000000000 ) ) ;
#195 = CALENDAR_DATE ( 2021, 12, 11 ) ;
#196 = SECURITY_CLASSIFICATION ( '', '', #88 ) ;
#197 = CARTESIAN_POINT ( 'NONE',  ( 1.396592535537253027E-14, -4.893590332726991221E-16, 3.999999999999999112 ) ) ;
#198 = CALENDAR_DATE ( 2021, 12, 11 ) ;
#199 = EDGE_LOOP ( 'NONE', ( #149 ) ) ;
#200 = LOCAL_TIME ( 8, 8, 19.00000000000000000, #94 ) ;
#201 = VERTEX_POINT ( 'NONE', #166 ) ;
#202 = ORIENTED_EDGE ( 'NONE', *, *, #43, .F. ) ;
#203 = APPROVAL_DATE_TIME ( #55, #136 ) ;
#204 = MANIFOLD_SOLID_BREP ( 'Corps-Déplacer/Copier1[1]', #90 ) ;
#205 = CC_DESIGN_APPROVAL ( #136, ( #196 ) ) ;
#206 = CARTESIAN_POINT ( 'NONE',  ( 0.0000000000000000000, 0.0000000000000000000, 0.0000000000000000000 ) ) ;
#207 = CARTESIAN_POINT ( 'NONE',  ( 2.748837443430593632E-14, -4.738198465453302984E-16, 7.872983346207408140 ) ) ;
#208 = DIRECTION ( 'NONE',  ( 3.491481338843133355E-15, -0.0000000000000000000, 1.000000000000000000 ) ) ;
#209 = CC_DESIGN_APPROVAL ( #181, ( #118 ) ) ;
#210 = ADVANCED_FACE ( 'NONE', ( #24, #134 ), #103, .T. ) ;
#211 = FACE_OUTER_BOUND ( 'NONE', #231, .T. ) ;
#212 = CIRCLE ( 'NONE', #101, 0.8999999999999998002 ) ;
#213 = ORIENTED_EDGE ( 'NONE', *, *, #47, .F. ) ;
#214 = CC_DESIGN_PERSON_AND_ORGANIZATION_ASSIGNMENT ( #218, #155, ( #196 ) ) ;
#215 = COORDINATED_UNIVERSAL_TIME_OFFSET ( 1, 0, .AHEAD. ) ;
#216 = EDGE_LOOP ( 'NONE', ( #42 ) ) ;
#217 = DATE_AND_TIME ( #23, #140 ) ;
#218 = PERSON_AND_ORGANIZATION ( #62, #113 ) ;
#219 = CC_DESIGN_PERSON_AND_ORGANIZATION_ASSIGNMENT ( #79, #169, ( #12 ) ) ;
#220 = FACE_OUTER_BOUND ( 'NONE', #199, .T. ) ;
#221 = DIRECTION ( 'NONE',  ( 4.275831445896958607E-31, 1.000000000000000000, 1.224646799147353207E-16 ) ) ;
#222 = AXIS2_PLACEMENT_3D ( 'NONE', #97, #190, #46 ) ;
#223 = DIRECTION ( 'NONE',  ( 3.491481338843133355E-15, -0.0000000000000000000, 1.000000000000000000 ) ) ;
#224 = FACE_OUTER_BOUND ( 'NONE', #15, .T. ) ;
#225 = EDGE_CURVE ( 'NONE', #138, #138, #243, .T. ) ;
#226 = AXIS2_PLACEMENT_3D ( 'NONE', #85, #66, #83 ) ;
#227 = DIRECTION ( 'NONE',  ( -4.275831445896958607E-31, -1.000000000000000000, -1.224646799147353207E-16 ) ) ;
#228 = TOROIDAL_SURFACE ( 'NONE', #86, 9.000000000000001776, 8.000000000000000000 ) ;
#229 = FACE_BOUND ( 'NONE', #152, .T. ) ;
#230 = CONICAL_SURFACE ( 'NONE', #51, 1.000000000000000000, 0.7853981633974495002 ) ;
#231 = EDGE_LOOP ( 'NONE', ( #38 ) ) ;
#232 = VERTEX_POINT ( 'NONE', #39 ) ;
#233 = DATE_TIME_ROLE ( 'creation_date' ) ;
#234 = ORIENTED_EDGE ( 'NONE', *, *, #9, .F. ) ;
#235 = PERSON_AND_ORGANIZATION_ROLE ( 'creator' ) ;
#236 = AXIS2_PLACEMENT_3D ( 'NONE', #206, #44, #16 ) ;
#237 = ADVANCED_FACE ( 'NONE', ( #21, #96 ), #36, .T. ) ;
#238 = APPROVAL_STATUS ( 'not_yet_approved' ) ;
#239 = CIRCLE ( 'NONE', #222, 1.000000000000001332 ) ;
#240 = MECHANICAL_CONTEXT ( 'NONE', #177, 'mechanical' ) ;
#241 = DIRECTION ( 'NONE',  ( 0.0000000000000000000, 1.000000000000000000, 0.0000000000000000000 ) ) ;
#242 = CARTESIAN_POINT ( 'NONE',  ( 1.731774744066194397E-13, -6.074248123770872657E-15, 49.60000000000000853 ) ) ;
#243 = CIRCLE ( 'NONE', #120, 1.000000000000001332 ) ;
ENDSEC;
END-ISO-10303-21;
