ISO-10303-21;
HEADER;
FILE_DESCRIPTION (( 'STEP AP203' ),
    '1' );
FILE_NAME ('56305.step',
    '2021-11-12T07:08:18',
    ( '' ),
    ( '' ),
    'SwSTEP 2.0',
    'SolidWorks 2019',
    '' );
FILE_SCHEMA (( 'CONFIG_CONTROL_DESIGN' ));
ENDSEC;

DATA;
#1 = PERSON_AND_ORGANIZATION ( #19, #4 ) ;
#2 = EDGE_CURVE ( 'NONE', #112, #112, #209, .T. ) ;
#3 = CC_DESIGN_APPROVAL ( #188, ( #12 ) ) ;
#4 = ORGANIZATION ( 'UNSPECIFIED', 'UNSPECIFIED', '' ) ;
#5 = EDGE_CURVE ( 'NONE', #96, #96, #122, .T. ) ;
#6 = DIRECTION ( 'NONE',  ( 0.0000000000000000000, 1.000000000000000000, 0.0000000000000000000 ) ) ;
#7 = DIRECTION ( 'NONE',  ( 0.0000000000000000000, -1.000000000000000000, 0.0000000000000000000 ) ) ;
#8 = APPROVAL_DATE_TIME ( #158, #211 ) ;
#9 = CALENDAR_DATE ( 2021, 12, 11 ) ;
#10 = EDGE_CURVE ( 'NONE', #165, #165, #208, .T. ) ;
#11 = CARTESIAN_POINT ( 'NONE',  ( 1.047444401652940007E-14, 1.124819836996392658E-32, 3.000000000000000000 ) ) ;
#12 = SECURITY_CLASSIFICATION ( '', '', #215 ) ;
#13 = VERTEX_POINT ( 'NONE', #204 ) ;
#14 =( LENGTH_UNIT ( ) NAMED_UNIT ( * ) SI_UNIT ( .MILLI., .METRE. ) );
#15 = APPLICATION_PROTOCOL_DEFINITION ( 'international standard', 'config_control_design', 1994, #196 ) ;
#16 = FACE_OUTER_BOUND ( 'NONE', #142, .T. ) ;
#17 = CALENDAR_DATE ( 2021, 12, 11 ) ;
#18 = APPLICATION_CONTEXT ( 'configuration controlled 3d designs of mechanical parts and assemblies' ) ;
#19 = PERSON ( 'UNSPECIFIED', 'UNSPECIFIED', 'UNSPECIFIED', ('UNSPECIFIED'), ('UNSPECIFIED'), ('UNSPECIFIED') ) ;
#20 = AXIS2_PLACEMENT_3D ( 'NONE', #69, #176, #157 ) ;
#21 = ADVANCED_FACE ( 'NONE', ( #174, #23 ), #45, .T. ) ;
#22 = APPROVAL_PERSON_ORGANIZATION ( #177, #211, #175 ) ;
#23 = FACE_OUTER_BOUND ( 'NONE', #64, .T. ) ;
#24 = EDGE_LOOP ( 'NONE', ( #195 ) ) ;
#25 = DIRECTION ( 'NONE',  ( 1.000000000000000000, 0.0000000000000000000, -3.491481338843133355E-15 ) ) ;
#26 = CLOSED_SHELL ( 'NONE', ( #21, #94, #111, #229, #146 ) ) ;
#27 = DATE_AND_TIME ( #198, #39 ) ;
#28 = ADVANCED_FACE ( 'NONE', ( #137 ), #108, .T. ) ;
#29 = APPROVAL_STATUS ( 'not_yet_approved' ) ;
#30 = ORIENTED_EDGE ( 'NONE', *, *, #82, .F. ) ;
#31 = CARTESIAN_POINT ( 'NONE',  ( 1.047444401652940007E-14, 1.124819836996392658E-32, 3.000000000000000000 ) ) ;
#32 = PRODUCT_DEFINITION_SHAPE ( 'NONE', 'NONE',  #216 ) ;
#33 = EDGE_CURVE ( 'NONE', #205, #205, #228, .T. ) ;
#34 = CARTESIAN_POINT ( 'NONE',  ( 0.6499999999999998002, 0.0000000000000000000, -2.283015397404104697E-15 ) ) ;
#35 = DIRECTION ( 'NONE',  ( 4.275831445896958607E-31, 1.000000000000000000, 1.224646799147353207E-16 ) ) ;
#36 = CARTESIAN_POINT ( 'NONE',  ( 0.0000000000000000000, 0.0000000000000000000, 0.0000000000000000000 ) ) ;
#37 = ADVANCED_FACE ( 'NONE', ( #202, #179 ), #115, .T. ) ;
#38 = EDGE_LOOP ( 'NONE', ( #140 ) ) ;
#39 = LOCAL_TIME ( 8, 8, 18.00000000000000000, #120 ) ;
#40 = ORIENTED_EDGE ( 'NONE', *, *, #5, .F. ) ;
#41 = EDGE_LOOP ( 'NONE', ( #231 ) ) ;
#42 = CC_DESIGN_PERSON_AND_ORGANIZATION_ASSIGNMENT ( #68, #139, ( #101 ) ) ;
#43 = PERSON_AND_ORGANIZATION_ROLE ( 'classification_officer' ) ;
#44 = PERSON_AND_ORGANIZATION ( #19, #4 ) ;
#45 = CYLINDRICAL_SURFACE ( 'NONE', #20, 1.499999999999999556 ) ;
#46 = FACE_OUTER_BOUND ( 'NONE', #200, .T. ) ;
#47 = CYLINDRICAL_SURFACE ( 'NONE', #154, 0.7500000000000004441 ) ;
#48 = DIRECTION ( 'NONE',  ( 3.491481338843133355E-15, -1.223397583181748052E-16, 1.000000000000000000 ) ) ;
#49 = APPROVAL_ROLE ( '' ) ;
#50 = CARTESIAN_POINT ( 'NONE',  ( 1.047444401652939691E-14, -0.7500000000000013323, 2.999999999999999112 ) ) ;
#51 = DIRECTION ( 'NONE',  ( 1.000000000000000000, 0.0000000000000000000, 0.0000000000000000000 ) ) ;
#52 = EDGE_CURVE ( 'NONE', #13, #13, #181, .T. ) ;
#53 = CARTESIAN_POINT ( 'NONE',  ( 1.326762908760390423E-13, 8.998558695971082698E-33, 38.00000000000000000 ) ) ;
#54 = AXIS2_PLACEMENT_3D ( 'NONE', #207, #190, #242 ) ;
#55 = CC_DESIGN_PERSON_AND_ORGANIZATION_ASSIGNMENT ( #1, #79, ( #216 ) ) ;
#56 = AXIS2_PLACEMENT_3D ( 'NONE', #218, #156, #7 ) ;
#57 = APPROVAL_PERSON_ORGANIZATION ( #93, #65, #49 ) ;
#58 = MANIFOLD_SOLID_BREP ( 'Corps-Déplacer/Copier1[1]', #26 ) ;
#59 = EDGE_LOOP ( 'NONE', ( #30 ) ) ;
#60 = DESIGN_CONTEXT ( 'detailed design', #196, 'design' ) ;
#61 = DIRECTION ( 'NONE',  ( -3.491481338843133355E-15, 1.224646799147353207E-16, -1.000000000000000000 ) ) ;
#62 = CLOSED_SHELL ( 'NONE', ( #191, #197, #37, #28 ) ) ;
#63 = CIRCLE ( 'NONE', #99, 1.200000000000000844 ) ;
#64 = EDGE_LOOP ( 'NONE', ( #121 ) ) ;
#65 = APPROVAL ( #187, 'UNSPECIFIED' ) ;
#66 = PERSON_AND_ORGANIZATION ( #19, #4 ) ;
#67 = DIRECTION ( 'NONE',  ( 0.0000000000000000000, 1.000000000000000000, 0.0000000000000000000 ) ) ;
#68 = PERSON_AND_ORGANIZATION ( #19, #4 ) ;
#69 = CARTESIAN_POINT ( 'NONE',  ( 0.0000000000000000000, 0.0000000000000000000, 0.0000000000000000000 ) ) ;
#70 = AXIS2_PLACEMENT_3D ( 'NONE', #116, #48, #113 ) ;
#71 = CARTESIAN_POINT ( 'NONE',  ( 1.047444401652939691E-14, -0.7500000000000013323, 2.999999999999999112 ) ) ;
#72 = PRODUCT ( '56305', '56305', '', ( #76 ) ) ;
#73 = PLANE ( 'NONE',  #134 ) ;
#74 = DIRECTION ( 'NONE',  ( 3.491481338843133355E-15, -1.224646799147353207E-16, 1.000000000000000000 ) ) ;
#75 = FACE_OUTER_BOUND ( 'NONE', #117, .T. ) ;
#76 = MECHANICAL_CONTEXT ( 'NONE', #18, 'mechanical' ) ;
#77 = CC_DESIGN_PERSON_AND_ORGANIZATION_ASSIGNMENT ( #114, #184, ( #72 ) ) ;
#78 = CARTESIAN_POINT ( 'NONE',  ( 1.326762908760390423E-13, 1.199999999999996181, 38.00000000000000000 ) ) ;
#79 = PERSON_AND_ORGANIZATION_ROLE ( 'creator' ) ;
#80 = ADVANCED_BREP_SHAPE_REPRESENTATION ( '56305', ( #58, #138, #193 ), #153 ) ;
#81 = LOCAL_TIME ( 8, 8, 18.00000000000000000, #123 ) ;
#82 = EDGE_CURVE ( 'NONE', #110, #110, #63, .T. ) ;
#83 = EDGE_LOOP ( 'NONE', ( #103 ) ) ;
#84 = CARTESIAN_POINT ( 'NONE',  ( -4.731839565957903391E-32, 0.0000000000000000000, -1.355252715606880543E-17 ) ) ;
#85 = PERSON_AND_ORGANIZATION_ROLE ( 'creator' ) ;
#86 = EDGE_LOOP ( 'NONE', ( #162 ) ) ;
#87 = COORDINATED_UNIVERSAL_TIME_OFFSET ( 1, 0, .AHEAD. ) ;
#88 = CARTESIAN_POINT ( 'NONE',  ( 1.047444401652939691E-14, -3.670192749545243169E-16, 2.999999999999999112 ) ) ;
#89 = AXIS2_PLACEMENT_3D ( 'NONE', #31, #241, #239 ) ;
#90 = FACE_OUTER_BOUND ( 'NONE', #41, .T. ) ;
#91 = DIRECTION ( 'NONE',  ( 3.491481338843133355E-15, -0.0000000000000000000, 1.000000000000000000 ) ) ;
#92 = VERTEX_POINT ( 'NONE', #71 ) ;
#93 = PERSON_AND_ORGANIZATION ( #19, #4 ) ;
#94 = ADVANCED_FACE ( 'NONE', ( #206, #46 ), #164, .T. ) ;
#95 = AXIS2_PLACEMENT_3D ( 'NONE', #150, #126, #166 ) ;
#96 = VERTEX_POINT ( 'NONE', #50 ) ;
#97 = DATE_AND_TIME ( #17, #143 ) ;
#98 = AXIS2_PLACEMENT_3D ( 'NONE', #84, #194, #25 ) ;
#99 = AXIS2_PLACEMENT_3D ( 'NONE', #240, #147, #222 ) ;
#100 = PRODUCT_RELATED_PRODUCT_CATEGORY ( 'detail', '', ( #72 ) ) ;
#101 = PRODUCT_DEFINITION_FORMATION_WITH_SPECIFIED_SOURCE ( 'ANY', '', #72, .NOT_KNOWN. ) ;
#102 = ORIENTED_EDGE ( 'NONE', *, *, #10, .F. ) ;
#103 = ORIENTED_EDGE ( 'NONE', *, *, #5, .T. ) ;
#104 = ORIENTED_EDGE ( 'NONE', *, *, #33, .F. ) ;
#105 = AXIS2_PLACEMENT_3D ( 'NONE', #109, #91, #148 ) ;
#106 = ORIENTED_EDGE ( 'NONE', *, *, #33, .T. ) ;
#107 = DATE_AND_TIME ( #130, #170 ) ;
#108 = PLANE ( 'NONE',  #199 ) ;
#109 = CARTESIAN_POINT ( 'NONE',  ( 3.491481338843133355E-16, 0.0000000000000000000, 0.1000000000000000056 ) ) ;
#110 = VERTEX_POINT ( 'NONE', #78 ) ;
#111 = ADVANCED_FACE ( 'NONE', ( #203 ), #73, .F. ) ;
#112 = VERTEX_POINT ( 'NONE', #144 ) ;
#113 = DIRECTION ( 'NONE',  ( -4.350739367196980763E-31, -1.000000000000000000, -1.223397583181748052E-16 ) ) ;
#114 = PERSON_AND_ORGANIZATION ( #19, #4 ) ;
#115 = CONICAL_SURFACE ( 'NONE', #105, 0.7500000000000000000, 0.7853981633974495002 ) ;
#116 = CARTESIAN_POINT ( 'NONE',  ( 1.047444401652939691E-14, 0.0000000000000000000, 2.999999999999999112 ) ) ;
#117 = EDGE_LOOP ( 'NONE', ( #235 ) ) ;
#118 = CC_DESIGN_APPROVAL ( #211, ( #101 ) ) ;
#119 = EDGE_LOOP ( 'NONE', ( #213 ) ) ;
#120 = COORDINATED_UNIVERSAL_TIME_OFFSET ( 1, 0, .AHEAD. ) ;
#121 = ORIENTED_EDGE ( 'NONE', *, *, #2, .T. ) ;
#122 = CIRCLE ( 'NONE', #56, 0.7500000000000009992 ) ;
#123 = COORDINATED_UNIVERSAL_TIME_OFFSET ( 1, 0, .AHEAD. ) ;
#124 = CARTESIAN_POINT ( 'NONE',  ( -3.206873584422719393E-31, 1.124819836996393206E-32, -9.184850993605149670E-17 ) ) ;
#125 = EDGE_CURVE ( 'NONE', #92, #92, #189, .T. ) ;
#126 = DIRECTION ( 'NONE',  ( 3.491481338843133355E-15, -0.0000000000000000000, 1.000000000000000000 ) ) ;
#127 = CARTESIAN_POINT ( 'NONE',  ( 1.316288464743861212E-13, 1.499999999999994449, 37.69999999999999574 ) ) ;
#128 = AXIS2_PLACEMENT_3D ( 'NONE', #159, #61, #67 ) ;
#129 = DIRECTION ( 'NONE',  ( 3.491481338843133355E-15, -1.223397583181748052E-16, 1.000000000000000000 ) ) ;
#130 = CALENDAR_DATE ( 2021, 12, 11 ) ;
#131 = DIRECTION ( 'NONE',  ( 0.0000000000000000000, 0.0000000000000000000, 1.000000000000000000 ) ) ;
#132 = DATE_AND_TIME ( #201, #81 ) ;
#133 = PLANE ( 'NONE',  #89 ) ;
#134 = AXIS2_PLACEMENT_3D ( 'NONE', #53, #220, #35 ) ;
#135 = EDGE_LOOP ( 'NONE', ( #106 ) ) ;
#136 = ORIENTED_EDGE ( 'NONE', *, *, #2, .F. ) ;
#137 = FACE_OUTER_BOUND ( 'NONE', #173, .T. ) ;
#138 = MANIFOLD_SOLID_BREP ( 'Corps-Déplacer/Copier1[2]', #62 ) ;
#139 = PERSON_AND_ORGANIZATION_ROLE ( 'design_supplier' ) ;
#140 = ORIENTED_EDGE ( 'NONE', *, *, #52, .F. ) ;
#141 = PERSON_AND_ORGANIZATION ( #19, #4 ) ;
#142 = EDGE_LOOP ( 'NONE', ( #136 ) ) ;
#143 = LOCAL_TIME ( 8, 8, 18.00000000000000000, #223 ) ;
#144 = CARTESIAN_POINT ( 'NONE',  ( 2.228241503965249553E-14, 1.499999999999999112, 6.381937314617166734 ) ) ;
#145 = FACE_OUTER_BOUND ( 'NONE', #83, .T. ) ;
#146 = ADVANCED_FACE ( 'NONE', ( #167 ), #183, .F. ) ;
#147 = DIRECTION ( 'NONE',  ( -3.491481338843133355E-15, 1.224646799147353207E-16, -1.000000000000000000 ) ) ;
#148 = DIRECTION ( 'NONE',  ( 1.000000000000000000, 0.0000000000000000000, -3.487516988161706061E-15 ) ) ;
#149 = APPROVAL_DATE_TIME ( #132, #188 ) ;
#150 = CARTESIAN_POINT ( 'NONE',  ( 3.491481338843133355E-16, 0.0000000000000000000, 0.1000000000000000056 ) ) ;
#151 = COORDINATED_UNIVERSAL_TIME_OFFSET ( 1, 0, .AHEAD. ) ;
#152 =( NAMED_UNIT ( * ) SI_UNIT ( $, .STERADIAN. ) SOLID_ANGLE_UNIT ( ) );
#153 =( GEOMETRIC_REPRESENTATION_CONTEXT ( 3 ) GLOBAL_UNCERTAINTY_ASSIGNED_CONTEXT ( ( #155 ) ) GLOBAL_UNIT_ASSIGNED_CONTEXT ( ( #14, #243, #152 ) ) REPRESENTATION_CONTEXT ( 'NONE', 'WORKASPACE' ) );
#154 = AXIS2_PLACEMENT_3D ( 'NONE', #36, #186, #224 ) ;
#155 = UNCERTAINTY_MEASURE_WITH_UNIT (LENGTH_MEASURE( 1.000000000000000082E-05 ), #14, 'distance_accuracy_value', 'NONE');
#156 = DIRECTION ( 'NONE',  ( 3.491481338843133355E-15, -1.223397583181748052E-16, 1.000000000000000000 ) ) ;
#157 = DIRECTION ( 'NONE',  ( 4.275831445896958607E-31, 1.000000000000000000, 1.224646799147353207E-16 ) ) ;
#158 = DATE_AND_TIME ( #9, #227 ) ;
#159 = CARTESIAN_POINT ( 'NONE',  ( 1.316288464743861212E-13, -4.616918432785521081E-15, 37.69999999999999574 ) ) ;
#160 = CC_DESIGN_PERSON_AND_ORGANIZATION_ASSIGNMENT ( #44, #43, ( #12 ) ) ;
#161 = APPROVAL_STATUS ( 'not_yet_approved' ) ;
#162 = ORIENTED_EDGE ( 'NONE', *, *, #82, .T. ) ;
#163 = FACE_OUTER_BOUND ( 'NONE', #119, .T. ) ;
#164 = CONICAL_SURFACE ( 'NONE', #54, 1.499999999999998890, 0.7853981633974425058 ) ;
#165 = VERTEX_POINT ( 'NONE', #34 ) ;
#166 = DIRECTION ( 'NONE',  ( 1.000000000000000000, 0.0000000000000000000, -3.487516988161706061E-15 ) ) ;
#167 = FACE_OUTER_BOUND ( 'NONE', #178, .T. ) ;
#168 = APPLICATION_PROTOCOL_DEFINITION ( 'international standard', 'config_control_design', 1994, #18 ) ;
#169 = AXIS2_PLACEMENT_3D ( 'NONE', #237, #233, #6 ) ;
#170 = LOCAL_TIME ( 8, 8, 18.00000000000000000, #151 ) ;
#171 = APPROVAL_DATE_TIME ( #97, #65 ) ;
#172 = AXIS2_PLACEMENT_3D ( 'NONE', #11, #74, #221 ) ;
#173 = EDGE_LOOP ( 'NONE', ( #102 ) ) ;
#174 = FACE_OUTER_BOUND ( 'NONE', #135, .T. ) ;
#175 = APPROVAL_ROLE ( '' ) ;
#176 = DIRECTION ( 'NONE',  ( -3.491481338843133355E-15, 1.224646799147353207E-16, -1.000000000000000000 ) ) ;
#177 = PERSON_AND_ORGANIZATION ( #19, #4 ) ;
#178 = EDGE_LOOP ( 'NONE', ( #40 ) ) ;
#179 = FACE_OUTER_BOUND ( 'NONE', #38, .T. ) ;
#180 = DIRECTION ( 'NONE',  ( 0.0000000000000000000, -1.000000000000000000, 0.0000000000000000000 ) ) ;
#181 = CIRCLE ( 'NONE', #95, 0.7500000000000000000 ) ;
#182 = APPROVAL_PERSON_ORGANIZATION ( #141, #188, #217 ) ;
#183 = PLANE ( 'NONE',  #172 ) ;
#184 = PERSON_AND_ORGANIZATION_ROLE ( 'design_owner' ) ;
#185 = SHAPE_DEFINITION_REPRESENTATION ( #32, #80 ) ;
#186 = DIRECTION ( 'NONE',  ( 3.491481338843133355E-15, -1.223397583181748052E-16, 1.000000000000000000 ) ) ;
#187 = APPROVAL_STATUS ( 'not_yet_approved' ) ;
#188 = APPROVAL ( #29, 'UNSPECIFIED' ) ;
#189 = CIRCLE ( 'NONE', #219, 0.7500000000000009992 ) ;
#190 = DIRECTION ( 'NONE',  ( -3.491481338843133355E-15, 1.224646799147353207E-16, -1.000000000000000000 ) ) ;
#191 = ADVANCED_FACE ( 'NONE', ( #90, #75 ), #47, .T. ) ;
#192 = CC_DESIGN_DATE_AND_TIME_ASSIGNMENT ( #27, #236, ( #12 ) ) ;
#193 = AXIS2_PLACEMENT_3D ( 'NONE', #225, #131, #51 ) ;
#194 = DIRECTION ( 'NONE',  ( 3.491481338843133355E-15, -0.0000000000000000000, 1.000000000000000000 ) ) ;
#195 = ORIENTED_EDGE ( 'NONE', *, *, #10, .T. ) ;
#196 = APPLICATION_CONTEXT ( 'configuration controlled 3d designs of mechanical parts and assemblies' ) ;
#197 = ADVANCED_FACE ( 'NONE', ( #163 ), #133, .T. ) ;
#198 = CALENDAR_DATE ( 2021, 12, 11 ) ;
#199 = AXIS2_PLACEMENT_3D ( 'NONE', #124, #214, #232 ) ;
#200 = EDGE_LOOP ( 'NONE', ( #104 ) ) ;
#201 = CALENDAR_DATE ( 2021, 12, 11 ) ;
#202 = FACE_BOUND ( 'NONE', #24, .T. ) ;
#203 = FACE_OUTER_BOUND ( 'NONE', #59, .T. ) ;
#204 = CARTESIAN_POINT ( 'NONE',  ( 0.7500000000000003331, 0.0000000000000000000, 0.09999999999999738265 ) ) ;
#205 = VERTEX_POINT ( 'NONE', #127 ) ;
#206 = FACE_BOUND ( 'NONE', #86, .T. ) ;
#207 = CARTESIAN_POINT ( 'NONE',  ( 1.316288464743861212E-13, -4.616918432785521081E-15, 37.69999999999999574 ) ) ;
#208 = CIRCLE ( 'NONE', #98, 0.6499999999999998002 ) ;
#209 = CIRCLE ( 'NONE', #169, 1.499999999999999556 ) ;
#210 = CC_DESIGN_APPROVAL ( #65, ( #216 ) ) ;
#211 = APPROVAL ( #161, 'UNSPECIFIED' ) ;
#212 = CC_DESIGN_SECURITY_CLASSIFICATION ( #12, ( #101 ) ) ;
#213 = ORIENTED_EDGE ( 'NONE', *, *, #125, .T. ) ;
#214 = DIRECTION ( 'NONE',  ( -3.491481338843133355E-15, 1.224646799147353207E-16, -1.000000000000000000 ) ) ;
#215 = SECURITY_CLASSIFICATION_LEVEL ( 'unclassified' ) ;
#216 = PRODUCT_DEFINITION ( 'UNKNOWN', '', #101, #60 ) ;
#217 = APPROVAL_ROLE ( '' ) ;
#218 = CARTESIAN_POINT ( 'NONE',  ( 1.047444401652939691E-14, -3.670192749545243169E-16, 2.999999999999999112 ) ) ;
#219 = AXIS2_PLACEMENT_3D ( 'NONE', #88, #129, #180 ) ;
#220 = DIRECTION ( 'NONE',  ( -3.491481338843133355E-15, 1.224646799147353207E-16, -1.000000000000000000 ) ) ;
#221 = DIRECTION ( 'NONE',  ( -4.275831445896958607E-31, -1.000000000000000000, -1.224646799147353207E-16 ) ) ;
#222 = DIRECTION ( 'NONE',  ( 0.0000000000000000000, 1.000000000000000000, 0.0000000000000000000 ) ) ;
#223 = COORDINATED_UNIVERSAL_TIME_OFFSET ( 1, 0, .AHEAD. ) ;
#224 = DIRECTION ( 'NONE',  ( -4.271469831664863477E-31, -1.000000000000000000, -1.223397583181748052E-16 ) ) ;
#225 = CARTESIAN_POINT ( 'NONE',  ( 0.0000000000000000000, 0.0000000000000000000, 0.0000000000000000000 ) ) ;
#226 = CC_DESIGN_PERSON_AND_ORGANIZATION_ASSIGNMENT ( #66, #85, ( #101 ) ) ;
#227 = LOCAL_TIME ( 8, 8, 18.00000000000000000, #87 ) ;
#228 = CIRCLE ( 'NONE', #128, 1.499999999999998890 ) ;
#229 = ADVANCED_FACE ( 'NONE', ( #16, #145 ), #230, .F. ) ;
#230 = TOROIDAL_SURFACE ( 'NONE', #70, 8.750000000000000000, 8.000000000000000000 ) ;
#231 = ORIENTED_EDGE ( 'NONE', *, *, #125, .F. ) ;
#232 = DIRECTION ( 'NONE',  ( 4.275831445896958607E-31, 1.000000000000000000, 1.224646799147353207E-16 ) ) ;
#233 = DIRECTION ( 'NONE',  ( 3.491481338843133355E-15, -1.223397583181748052E-16, 1.000000000000000000 ) ) ;
#234 = DATE_TIME_ROLE ( 'creation_date' ) ;
#235 = ORIENTED_EDGE ( 'NONE', *, *, #52, .T. ) ;
#236 = DATE_TIME_ROLE ( 'classification_date' ) ;
#237 = CARTESIAN_POINT ( 'NONE',  ( 2.228241503965249553E-14, -4.137453937174813876E-16, 6.381937314617166734 ) ) ;
#238 = CC_DESIGN_DATE_AND_TIME_ASSIGNMENT ( #107, #234, ( #216 ) ) ;
#239 = DIRECTION ( 'NONE',  ( -4.275831445896958607E-31, -1.000000000000000000, -1.224646799147353207E-16 ) ) ;
#240 = CARTESIAN_POINT ( 'NONE',  ( 1.326762908760390423E-13, -4.653657836759941941E-15, 38.00000000000000000 ) ) ;
#241 = DIRECTION ( 'NONE',  ( 3.491481338843133355E-15, -1.224646799147353207E-16, 1.000000000000000000 ) ) ;
#242 = DIRECTION ( 'NONE',  ( 0.0000000000000000000, 1.000000000000000000, 0.0000000000000000000 ) ) ;
#243 =( NAMED_UNIT ( * ) PLANE_ANGLE_UNIT ( ) SI_UNIT ( $, .RADIAN. ) );
ENDSEC;
END-ISO-10303-21;
