ISO-10303-21;
HEADER;
FILE_DESCRIPTION (( 'STEP AP203' ),
    '1' );
FILE_NAME ('56304.step',
    '2021-11-12T07:08:18',
    ( '' ),
    ( '' ),
    'SwSTEP 2.0',
    'SolidWorks 2019',
    '' );
FILE_SCHEMA (( 'CONFIG_CONTROL_DESIGN' ));
ENDSEC;

DATA;
#1 = DIRECTION ( 'NONE',  ( -4.351940420765649526E-31, -1.000000000000000000, -1.223397583181748052E-16 ) ) ;
#2 = ORIENTED_EDGE ( 'NONE', *, *, #199, .F. ) ;
#3 = AXIS2_PLACEMENT_3D ( 'NONE', #160, #70, #195 ) ;
#4 = DIRECTION ( 'NONE',  ( 3.491481338843133355E-15, -1.224646799147353207E-16, 1.000000000000000000 ) ) ;
#5 = DIRECTION ( 'NONE',  ( 4.275831445896958607E-31, 1.000000000000000000, 1.224646799147353207E-16 ) ) ;
#6 = DIRECTION ( 'NONE',  ( 0.0000000000000000000, 1.000000000000000000, 0.0000000000000000000 ) ) ;
#7 = ADVANCED_FACE ( 'NONE', ( #211, #80 ), #149, .F. ) ;
#8 = DIRECTION ( 'NONE',  ( 0.0000000000000000000, 1.000000000000000000, 0.0000000000000000000 ) ) ;
#9 = VERTEX_POINT ( 'NONE', #176 ) ;
#10 = ADVANCED_FACE ( 'NONE', ( #172, #150 ), #134, .T. ) ;
#11 = CALENDAR_DATE ( 2021, 12, 11 ) ;
#12 = ADVANCED_BREP_SHAPE_REPRESENTATION ( '56304', ( #20, #186, #217 ), #100 ) ;
#13 = SECURITY_CLASSIFICATION_LEVEL ( 'unclassified' ) ;
#14 = UNCERTAINTY_MEASURE_WITH_UNIT (LENGTH_MEASURE( 1.000000000000000082E-05 ), #231, 'distance_accuracy_value', 'NONE');
#15 = DIRECTION ( 'NONE',  ( 1.000000000000000000, 0.0000000000000000000, 0.0000000000000000000 ) ) ;
#16 = DIRECTION ( 'NONE',  ( 0.0000000000000000000, 0.0000000000000000000, 1.000000000000000000 ) ) ;
#17 = CALENDAR_DATE ( 2021, 12, 11 ) ;
#18 = CC_DESIGN_APPROVAL ( #157, ( #45 ) ) ;
#19 = ORIENTED_EDGE ( 'NONE', *, *, #96, .T. ) ;
#20 = MANIFOLD_SOLID_BREP ( 'Corps-Déplacer/Copier1[1]', #64 ) ;
#21 = EDGE_LOOP ( 'NONE', ( #138 ) ) ;
#22 = FACE_OUTER_BOUND ( 'NONE', #63, .T. ) ;
#23 = CONICAL_SURFACE ( 'NONE', #111, 1.499999999999998890, 0.7853981633974425058 ) ;
#24 = CARTESIAN_POINT ( 'NONE',  ( 0.0000000000000000000, 0.0000000000000000000, 0.0000000000000000000 ) ) ;
#25 = CC_DESIGN_DATE_AND_TIME_ASSIGNMENT ( #94, #72, ( #29 ) ) ;
#26 = ORIENTED_EDGE ( 'NONE', *, *, #110, .T. ) ;
#27 = PLANE ( 'NONE',  #215 ) ;
#28 = VERTEX_POINT ( 'NONE', #105 ) ;
#29 = PRODUCT_DEFINITION ( 'UNKNOWN', '', #45, #165 ) ;
#30 = DIRECTION ( 'NONE',  ( 3.491481338843133355E-15, -1.223397583181748052E-16, 1.000000000000000000 ) ) ;
#31 =( NAMED_UNIT ( * ) SI_UNIT ( $, .STERADIAN. ) SOLID_ANGLE_UNIT ( ) );
#32 = VERTEX_POINT ( 'NONE', #156 ) ;
#33 = CIRCLE ( 'NONE', #37, 0.5000000000000006661 ) ;
#34 = ADVANCED_FACE ( 'NONE', ( #102, #136 ), #152, .T. ) ;
#35 = APPLICATION_PROTOCOL_DEFINITION ( 'international standard', 'config_control_design', 1994, #130 ) ;
#36 = APPROVAL_STATUS ( 'not_yet_approved' ) ;
#37 = AXIS2_PLACEMENT_3D ( 'NONE', #89, #30, #103 ) ;
#38 = PERSON_AND_ORGANIZATION_ROLE ( 'design_supplier' ) ;
#39 = PRODUCT_RELATED_PRODUCT_CATEGORY ( 'detail', '', ( #177 ) ) ;
#40 = PERSON_AND_ORGANIZATION ( #73, #118 ) ;
#41 = DIRECTION ( 'NONE',  ( 1.000000000000000000, 0.0000000000000000000, -3.496552006265751800E-15 ) ) ;
#42 = CARTESIAN_POINT ( 'NONE',  ( 6.982962677686266711E-15, 1.124819836996392932E-32, 2.000000000000000000 ) ) ;
#43 = EDGE_LOOP ( 'NONE', ( #19 ) ) ;
#44 = EDGE_LOOP ( 'NONE', ( #154 ) ) ;
#45 = PRODUCT_DEFINITION_FORMATION_WITH_SPECIFIED_SOURCE ( 'ANY', '', #177, .NOT_KNOWN. ) ;
#46 = CC_DESIGN_PERSON_AND_ORGANIZATION_ASSIGNMENT ( #108, #184, ( #177 ) ) ;
#47 = ORIENTED_EDGE ( 'NONE', *, *, #106, .F. ) ;
#48 = CARTESIAN_POINT ( 'NONE',  ( 1.316288464743861212E-13, -4.616918432785521081E-15, 37.69999999999999574 ) ) ;
#49 = AXIS2_PLACEMENT_3D ( 'NONE', #24, #101, #5 ) ;
#50 = DIRECTION ( 'NONE',  ( 3.491481338843133355E-15, -1.223397583181748052E-16, 1.000000000000000000 ) ) ;
#51 = DIRECTION ( 'NONE',  ( -3.491481338843133355E-15, 1.224646799147353207E-16, -1.000000000000000000 ) ) ;
#52 = CC_DESIGN_PERSON_AND_ORGANIZATION_ASSIGNMENT ( #40, #235, ( #45 ) ) ;
#53 = PERSON_AND_ORGANIZATION_ROLE ( 'classification_officer' ) ;
#54 = PERSON_AND_ORGANIZATION ( #73, #118 ) ;
#55 = AXIS2_PLACEMENT_3D ( 'NONE', #48, #214, #92 ) ;
#56 = CALENDAR_DATE ( 2021, 12, 11 ) ;
#57 = ADVANCED_FACE ( 'NONE', ( #189, #207 ), #23, .T. ) ;
#58 = ORIENTED_EDGE ( 'NONE', *, *, #96, .F. ) ;
#59 = DIRECTION ( 'NONE',  ( 3.491481338843133355E-15, -1.223397583181748052E-16, 1.000000000000000000 ) ) ;
#60 = EDGE_LOOP ( 'NONE', ( #239 ) ) ;
#61 = FACE_OUTER_BOUND ( 'NONE', #43, .T. ) ;
#62 = CC_DESIGN_PERSON_AND_ORGANIZATION_ASSIGNMENT ( #144, #53, ( #210 ) ) ;
#63 = EDGE_LOOP ( 'NONE', ( #26 ) ) ;
#64 = CLOSED_SHELL ( 'NONE', ( #79, #57, #185, #7, #232 ) ) ;
#65 = PLANE ( 'NONE',  #82 ) ;
#66 = FACE_OUTER_BOUND ( 'NONE', #60, .T. ) ;
#67 = CARTESIAN_POINT ( 'NONE',  ( 2.050541175661968854E-14, -4.738198465453311859E-16, 5.872983346207414357 ) ) ;
#68 = AXIS2_PLACEMENT_3D ( 'NONE', #197, #50, #175 ) ;
#69 =( NAMED_UNIT ( * ) PLANE_ANGLE_UNIT ( ) SI_UNIT ( $, .RADIAN. ) );
#70 = DIRECTION ( 'NONE',  ( 3.491481338843133355E-15, -0.0000000000000000000, 1.000000000000000000 ) ) ;
#71 = COORDINATED_UNIVERSAL_TIME_OFFSET ( 1, 0, .AHEAD. ) ;
#72 = DATE_TIME_ROLE ( 'creation_date' ) ;
#73 = PERSON ( 'UNSPECIFIED', 'UNSPECIFIED', 'UNSPECIFIED', ('UNSPECIFIED'), ('UNSPECIFIED'), ('UNSPECIFIED') ) ;
#74 = COORDINATED_UNIVERSAL_TIME_OFFSET ( 1, 0, .AHEAD. ) ;
#75 = ADVANCED_FACE ( 'NONE', ( #226 ), #117, .T. ) ;
#76 = APPLICATION_PROTOCOL_DEFINITION ( 'international standard', 'config_control_design', 1994, #237 ) ;
#77 = AXIS2_PLACEMENT_3D ( 'NONE', #153, #98, #41 ) ;
#78 = LOCAL_TIME ( 8, 8, 18.00000000000000000, #74 ) ;
#79 = ADVANCED_FACE ( 'NONE', ( #22, #61 ), #208, .T. ) ;
#80 = FACE_OUTER_BOUND ( 'NONE', #241, .T. ) ;
#81 = ORIENTED_EDGE ( 'NONE', *, *, #240, .F. ) ;
#82 = AXIS2_PLACEMENT_3D ( 'NONE', #216, #229, #178 ) ;
#83 = ADVANCED_FACE ( 'NONE', ( #141 ), #65, .T. ) ;
#84 = EDGE_LOOP ( 'NONE', ( #119 ) ) ;
#85 = EDGE_LOOP ( 'NONE', ( #47 ) ) ;
#86 = CIRCLE ( 'NONE', #227, 1.200000000000000844 ) ;
#87 = CARTESIAN_POINT ( 'NONE',  ( 0.3999999999999997446, 0.0000000000000000000, -1.410145062693321359E-15 ) ) ;
#88 = CARTESIAN_POINT ( 'NONE',  ( 6.982962677686260400E-15, -0.5000000000000008882, 1.999999999999998224 ) ) ;
#89 = CARTESIAN_POINT ( 'NONE',  ( 6.982962677686260400E-15, -2.446795166363493638E-16, 1.999999999999998224 ) ) ;
#90 = APPROVAL_PERSON_ORGANIZATION ( #162, #124, #163 ) ;
#91 = DIRECTION ( 'NONE',  ( 1.000000000000000000, 0.0000000000000000000, -3.496552006265751800E-15 ) ) ;
#92 = DIRECTION ( 'NONE',  ( 0.0000000000000000000, 1.000000000000000000, 0.0000000000000000000 ) ) ;
#93 = DATE_TIME_ROLE ( 'classification_date' ) ;
#94 = DATE_AND_TIME ( #220, #221 ) ;
#95 = APPROVAL_DATE_TIME ( #113, #124 ) ;
#96 = EDGE_CURVE ( 'NONE', #196, #196, #200, .T. ) ;
#97 = LOCAL_TIME ( 8, 8, 18.00000000000000000, #148 ) ;
#98 = DIRECTION ( 'NONE',  ( 3.491481338843133355E-15, -0.0000000000000000000, 1.000000000000000000 ) ) ;
#99 = EDGE_LOOP ( 'NONE', ( #194 ) ) ;
#100 =( GEOMETRIC_REPRESENTATION_CONTEXT ( 3 ) GLOBAL_UNCERTAINTY_ASSIGNED_CONTEXT ( ( #14 ) ) GLOBAL_UNIT_ASSIGNED_CONTEXT ( ( #231, #69, #31 ) ) REPRESENTATION_CONTEXT ( 'NONE', 'WORKASPACE' ) );
#101 = DIRECTION ( 'NONE',  ( -3.491481338843133355E-15, 1.224646799147353207E-16, -1.000000000000000000 ) ) ;
#102 = FACE_OUTER_BOUND ( 'NONE', #170, .T. ) ;
#103 = DIRECTION ( 'NONE',  ( 0.0000000000000000000, -1.000000000000000000, 0.0000000000000000000 ) ) ;
#104 = DIRECTION ( 'NONE',  ( 3.491481338843133355E-15, -0.0000000000000000000, 1.000000000000000000 ) ) ;
#105 = CARTESIAN_POINT ( 'NONE',  ( 0.5000000000000003331, 0.0000000000000000000, 0.09999999999999825695 ) ) ;
#106 = EDGE_CURVE ( 'NONE', #28, #28, #159, .T. ) ;
#107 = LOCAL_TIME ( 8, 8, 18.00000000000000000, #234 ) ;
#108 = PERSON_AND_ORGANIZATION ( #73, #118 ) ;
#109 = PRODUCT_DEFINITION_SHAPE ( 'NONE', 'NONE',  #29 ) ;
#110 = EDGE_CURVE ( 'NONE', #9, #9, #242, .T. ) ;
#111 = AXIS2_PLACEMENT_3D ( 'NONE', #135, #206, #116 ) ;
#112 = PERSON_AND_ORGANIZATION ( #73, #118 ) ;
#113 = DATE_AND_TIME ( #56, #97 ) ;
#114 = DIRECTION ( 'NONE',  ( -4.271469831664864353E-31, -1.000000000000000000, -1.223397583181748052E-16 ) ) ;
#115 = CC_DESIGN_SECURITY_CLASSIFICATION ( #210, ( #45 ) ) ;
#116 = DIRECTION ( 'NONE',  ( 0.0000000000000000000, 1.000000000000000000, 0.0000000000000000000 ) ) ;
#117 = PLANE ( 'NONE',  #151 ) ;
#118 = ORGANIZATION ( 'UNSPECIFIED', 'UNSPECIFIED', '' ) ;
#119 = ORIENTED_EDGE ( 'NONE', *, *, #240, .T. ) ;
#120 = CC_DESIGN_PERSON_AND_ORGANIZATION_ASSIGNMENT ( #166, #38, ( #45 ) ) ;
#121 = DIRECTION ( 'NONE',  ( -3.491481338843133355E-15, 1.224646799147353207E-16, -1.000000000000000000 ) ) ;
#122 = CARTESIAN_POINT ( 'NONE',  ( 2.050541175661968854E-14, 1.499999999999999112, 5.872983346207414357 ) ) ;
#123 = CC_DESIGN_APPROVAL ( #132, ( #210 ) ) ;
#124 = APPROVAL ( #181, 'UNSPECIFIED' ) ;
#125 = FACE_OUTER_BOUND ( 'NONE', #174, .T. ) ;
#126 = CLOSED_SHELL ( 'NONE', ( #34, #75, #10, #83 ) ) ;
#127 = CC_DESIGN_APPROVAL ( #124, ( #29 ) ) ;
#128 = MECHANICAL_CONTEXT ( 'NONE', #130, 'mechanical' ) ;
#129 = DATE_AND_TIME ( #11, #146 ) ;
#130 = APPLICATION_CONTEXT ( 'configuration controlled 3d designs of mechanical parts and assemblies' ) ;
#131 = APPROVAL_ROLE ( '' ) ;
#132 = APPROVAL ( #182, 'UNSPECIFIED' ) ;
#133 = EDGE_LOOP ( 'NONE', ( #58 ) ) ;
#134 = CONICAL_SURFACE ( 'NONE', #77, 0.5000000000000000000, 0.7853981633974495002 ) ;
#135 = CARTESIAN_POINT ( 'NONE',  ( 1.316288464743861212E-13, -4.616918432785521081E-15, 37.69999999999999574 ) ) ;
#136 = FACE_OUTER_BOUND ( 'NONE', #21, .T. ) ;
#137 = CARTESIAN_POINT ( 'NONE',  ( 6.982962677686263555E-15, 0.0000000000000000000, 1.999999999999999112 ) ) ;
#138 = ORIENTED_EDGE ( 'NONE', *, *, #106, .T. ) ;
#139 = CARTESIAN_POINT ( 'NONE',  ( 1.326762908760390423E-13, 8.998558695971082698E-33, 38.00000000000000000 ) ) ;
#140 = DIRECTION ( 'NONE',  ( 4.275831445896958607E-31, 1.000000000000000000, 1.224646799147353207E-16 ) ) ;
#141 = FACE_OUTER_BOUND ( 'NONE', #173, .T. ) ;
#142 = AXIS2_PLACEMENT_3D ( 'NONE', #67, #179, #8 ) ;
#143 = DIRECTION ( 'NONE',  ( -4.275831445896958607E-31, -1.000000000000000000, -1.224646799147353207E-16 ) ) ;
#144 = PERSON_AND_ORGANIZATION ( #73, #118 ) ;
#145 = EDGE_CURVE ( 'NONE', #155, #155, #86, .T. ) ;
#146 = LOCAL_TIME ( 8, 8, 18.00000000000000000, #71 ) ;
#147 = PERSON_AND_ORGANIZATION ( #73, #118 ) ;
#148 = COORDINATED_UNIVERSAL_TIME_OFFSET ( 1, 0, .AHEAD. ) ;
#149 = TOROIDAL_SURFACE ( 'NONE', #209, 8.500000000000000000, 8.000000000000000000 ) ;
#150 = FACE_OUTER_BOUND ( 'NONE', #85, .T. ) ;
#151 = AXIS2_PLACEMENT_3D ( 'NONE', #42, #190, #225 ) ;
#152 = CYLINDRICAL_SURFACE ( 'NONE', #183, 0.5000000000000003331 ) ;
#153 = CARTESIAN_POINT ( 'NONE',  ( 3.491481338843133355E-16, 0.0000000000000000000, 0.1000000000000000056 ) ) ;
#154 = ORIENTED_EDGE ( 'NONE', *, *, #110, .F. ) ;
#155 = VERTEX_POINT ( 'NONE', #212 ) ;
#156 = CARTESIAN_POINT ( 'NONE',  ( 6.982962677686260400E-15, -0.5000000000000008882, 1.999999999999998224 ) ) ;
#157 = APPROVAL ( #36, 'UNSPECIFIED' ) ;
#158 = VERTEX_POINT ( 'NONE', #88 ) ;
#159 = CIRCLE ( 'NONE', #169, 0.5000000000000000000 ) ;
#160 = CARTESIAN_POINT ( 'NONE',  ( -4.731839565957903391E-32, 0.0000000000000000000, -1.355252715606880543E-17 ) ) ;
#161 = CC_DESIGN_PERSON_AND_ORGANIZATION_ASSIGNMENT ( #112, #202, ( #29 ) ) ;
#162 = PERSON_AND_ORGANIZATION ( #73, #118 ) ;
#163 = APPROVAL_ROLE ( '' ) ;
#164 = COORDINATED_UNIVERSAL_TIME_OFFSET ( 1, 0, .AHEAD. ) ;
#165 = DESIGN_CONTEXT ( 'detailed design', #237, 'design' ) ;
#166 = PERSON_AND_ORGANIZATION ( #73, #118 ) ;
#167 = CC_DESIGN_DATE_AND_TIME_ASSIGNMENT ( #222, #93, ( #210 ) ) ;
#168 = APPROVAL_ROLE ( '' ) ;
#169 = AXIS2_PLACEMENT_3D ( 'NONE', #230, #104, #91 ) ;
#170 = EDGE_LOOP ( 'NONE', ( #81 ) ) ;
#171 = AXIS2_PLACEMENT_3D ( 'NONE', #228, #4, #143 ) ;
#172 = FACE_BOUND ( 'NONE', #99, .T. ) ;
#173 = EDGE_LOOP ( 'NONE', ( #191 ) ) ;
#174 = EDGE_LOOP ( 'NONE', ( #2 ) ) ;
#175 = DIRECTION ( 'NONE',  ( 0.0000000000000000000, -1.000000000000000000, 0.0000000000000000000 ) ) ;
#176 = CARTESIAN_POINT ( 'NONE',  ( 1.316288464743861212E-13, 1.499999999999994449, 37.69999999999999574 ) ) ;
#177 = PRODUCT ( '56304', '56304', '', ( #128 ) ) ;
#178 = DIRECTION ( 'NONE',  ( 4.275831445896958607E-31, 1.000000000000000000, 1.224646799147353207E-16 ) ) ;
#179 = DIRECTION ( 'NONE',  ( 3.491481338843133355E-15, -1.223397583181748052E-16, 1.000000000000000000 ) ) ;
#180 = APPROVAL_PERSON_ORGANIZATION ( #147, #157, #168 ) ;
#181 = APPROVAL_STATUS ( 'not_yet_approved' ) ;
#182 = APPROVAL_STATUS ( 'not_yet_approved' ) ;
#183 = AXIS2_PLACEMENT_3D ( 'NONE', #243, #59, #114 ) ;
#184 = PERSON_AND_ORGANIZATION_ROLE ( 'design_owner' ) ;
#185 = ADVANCED_FACE ( 'NONE', ( #66 ), #27, .F. ) ;
#186 = MANIFOLD_SOLID_BREP ( 'Corps-Déplacer/Copier1[2]', #126 ) ;
#187 = DATE_AND_TIME ( #17, #78 ) ;
#188 = CIRCLE ( 'NONE', #68, 0.5000000000000006661 ) ;
#189 = FACE_BOUND ( 'NONE', #193, .T. ) ;
#190 = DIRECTION ( 'NONE',  ( 3.491481338843133355E-15, -1.224646799147353207E-16, 1.000000000000000000 ) ) ;
#191 = ORIENTED_EDGE ( 'NONE', *, *, #204, .F. ) ;
#192 = CIRCLE ( 'NONE', #3, 0.3999999999999997446 ) ;
#193 = EDGE_LOOP ( 'NONE', ( #224 ) ) ;
#194 = ORIENTED_EDGE ( 'NONE', *, *, #204, .T. ) ;
#195 = DIRECTION ( 'NONE',  ( 1.000000000000000000, 0.0000000000000000000, -3.491481338843133750E-15 ) ) ;
#196 = VERTEX_POINT ( 'NONE', #122 ) ;
#197 = CARTESIAN_POINT ( 'NONE',  ( 6.982962677686260400E-15, -2.446795166363493638E-16, 1.999999999999998224 ) ) ;
#198 = PLANE ( 'NONE',  #171 ) ;
#199 = EDGE_CURVE ( 'NONE', #158, #158, #33, .T. ) ;
#200 = CIRCLE ( 'NONE', #142, 1.499999999999999556 ) ;
#201 = CARTESIAN_POINT ( 'NONE',  ( 0.0000000000000000000, 0.0000000000000000000, 0.0000000000000000000 ) ) ;
#202 = PERSON_AND_ORGANIZATION_ROLE ( 'creator' ) ;
#203 = APPROVAL_DATE_TIME ( #129, #132 ) ;
#204 = EDGE_CURVE ( 'NONE', #213, #213, #192, .T. ) ;
#205 = DIRECTION ( 'NONE',  ( 3.491481338843133355E-15, -1.223397583181748052E-16, 1.000000000000000000 ) ) ;
#206 = DIRECTION ( 'NONE',  ( -3.491481338843133355E-15, 1.224646799147353207E-16, -1.000000000000000000 ) ) ;
#207 = FACE_OUTER_BOUND ( 'NONE', #44, .T. ) ;
#208 = CYLINDRICAL_SURFACE ( 'NONE', #49, 1.499999999999999556 ) ;
#209 = AXIS2_PLACEMENT_3D ( 'NONE', #137, #205, #1 ) ;
#210 = SECURITY_CLASSIFICATION ( '', '', #13 ) ;
#211 = FACE_OUTER_BOUND ( 'NONE', #133, .T. ) ;
#212 = CARTESIAN_POINT ( 'NONE',  ( 1.326762908760390423E-13, 1.199999999999996181, 38.00000000000000000 ) ) ;
#213 = VERTEX_POINT ( 'NONE', #87 ) ;
#214 = DIRECTION ( 'NONE',  ( -3.491481338843133355E-15, 1.224646799147353207E-16, -1.000000000000000000 ) ) ;
#215 = AXIS2_PLACEMENT_3D ( 'NONE', #139, #51, #140 ) ;
#216 = CARTESIAN_POINT ( 'NONE',  ( -3.206873584422719393E-31, 1.124819836996393206E-32, -9.184850993605149670E-17 ) ) ;
#217 = AXIS2_PLACEMENT_3D ( 'NONE', #201, #16, #15 ) ;
#218 = SHAPE_DEFINITION_REPRESENTATION ( #109, #12 ) ;
#219 = APPROVAL_DATE_TIME ( #187, #157 ) ;
#220 = CALENDAR_DATE ( 2021, 12, 11 ) ;
#221 = LOCAL_TIME ( 8, 8, 18.00000000000000000, #164 ) ;
#222 = DATE_AND_TIME ( #236, #107 ) ;
#223 = ORIENTED_EDGE ( 'NONE', *, *, #199, .T. ) ;
#224 = ORIENTED_EDGE ( 'NONE', *, *, #145, .T. ) ;
#225 = DIRECTION ( 'NONE',  ( -4.275831445896958607E-31, -1.000000000000000000, -1.224646799147353207E-16 ) ) ;
#226 = FACE_OUTER_BOUND ( 'NONE', #84, .T. ) ;
#227 = AXIS2_PLACEMENT_3D ( 'NONE', #233, #121, #6 ) ;
#228 = CARTESIAN_POINT ( 'NONE',  ( 6.982962677686266711E-15, 1.124819836996392932E-32, 2.000000000000000000 ) ) ;
#229 = DIRECTION ( 'NONE',  ( -3.491481338843133355E-15, 1.224646799147353207E-16, -1.000000000000000000 ) ) ;
#230 = CARTESIAN_POINT ( 'NONE',  ( 3.491481338843133355E-16, 0.0000000000000000000, 0.1000000000000000056 ) ) ;
#231 =( LENGTH_UNIT ( ) NAMED_UNIT ( * ) SI_UNIT ( .MILLI., .METRE. ) );
#232 = ADVANCED_FACE ( 'NONE', ( #125 ), #198, .F. ) ;
#233 = CARTESIAN_POINT ( 'NONE',  ( 1.326762908760390423E-13, -4.653657836759941941E-15, 38.00000000000000000 ) ) ;
#234 = COORDINATED_UNIVERSAL_TIME_OFFSET ( 1, 0, .AHEAD. ) ;
#235 = PERSON_AND_ORGANIZATION_ROLE ( 'creator' ) ;
#236 = CALENDAR_DATE ( 2021, 12, 11 ) ;
#237 = APPLICATION_CONTEXT ( 'configuration controlled 3d designs of mechanical parts and assemblies' ) ;
#238 = APPROVAL_PERSON_ORGANIZATION ( #54, #132, #131 ) ;
#239 = ORIENTED_EDGE ( 'NONE', *, *, #145, .F. ) ;
#240 = EDGE_CURVE ( 'NONE', #32, #32, #188, .T. ) ;
#241 = EDGE_LOOP ( 'NONE', ( #223 ) ) ;
#242 = CIRCLE ( 'NONE', #55, 1.499999999999998890 ) ;
#243 = CARTESIAN_POINT ( 'NONE',  ( 0.0000000000000000000, 0.0000000000000000000, 0.0000000000000000000 ) ) ;
ENDSEC;
END-ISO-10303-21;
