ISO-10303-21;
HEADER;
FILE_DESCRIPTION (( 'STEP AP203' ),
    '1' );
FILE_NAME ('56303.step',
    '2021-11-12T07:08:17',
    ( '' ),
    ( '' ),
    'SwSTEP 2.0',
    'SolidWorks 2019',
    '' );
FILE_SCHEMA (( 'CONFIG_CONTROL_DESIGN' ));
ENDSEC;

DATA;
#1 = DATE_TIME_ROLE ( 'creation_date' ) ;
#2 = EDGE_LOOP ( 'NONE', ( #81 ) ) ;
#3 = ADVANCED_FACE ( 'NONE', ( #104, #84 ), #117, .T. ) ;
#4 = APPROVAL_STATUS ( 'not_yet_approved' ) ;
#5 = CIRCLE ( 'NONE', #45, 2.750000000000000444 ) ;
#6 = DIRECTION ( 'NONE',  ( 0.0000000000000000000, 1.000000000000000000, 0.0000000000000000000 ) ) ;
#7 = DIRECTION ( 'NONE',  ( -4.271469831664863477E-31, -1.000000000000000000, -1.223397583181748052E-16 ) ) ;
#8 = CARTESIAN_POINT ( 'NONE',  ( 3.491481338843132724E-14, -1.734723475976807094E-15, 9.999999999999998224 ) ) ;
#9 = ORIENTED_EDGE ( 'NONE', *, *, #118, .T. ) ;
#10 = ORIENTED_EDGE ( 'NONE', *, *, #49, .T. ) ;
#11 = UNCERTAINTY_MEASURE_WITH_UNIT (LENGTH_MEASURE( 1.000000000000000082E-05 ), #92, 'distance_accuracy_value', 'NONE');
#12 = MECHANICAL_CONTEXT ( 'NONE', #208, 'mechanical' ) ;
#13 = VERTEX_POINT ( 'NONE', #166 ) ;
#14 = CC_DESIGN_DATE_AND_TIME_ASSIGNMENT ( #82, #37, ( #224 ) ) ;
#15 = CARTESIAN_POINT ( 'NONE',  ( 0.0000000000000000000, 0.0000000000000000000, 0.0000000000000000000 ) ) ;
#16 =( GEOMETRIC_REPRESENTATION_CONTEXT ( 3 ) GLOBAL_UNCERTAINTY_ASSIGNED_CONTEXT ( ( #11 ) ) GLOBAL_UNIT_ASSIGNED_CONTEXT ( ( #92, #237, #146 ) ) REPRESENTATION_CONTEXT ( 'NONE', 'WORKASPACE' ) );
#17 = DIRECTION ( 'NONE',  ( 0.0000000000000000000, 1.000000000000000000, 0.0000000000000000000 ) ) ;
#18 = PERSON_AND_ORGANIZATION_ROLE ( 'creator' ) ;
#19 = APPROVAL_DATE_TIME ( #79, #163 ) ;
#20 = APPROVAL_PERSON_ORGANIZATION ( #191, #163, #136 ) ;
#21 = APPLICATION_CONTEXT ( 'configuration controlled 3d designs of mechanical parts and assemblies' ) ;
#22 = PERSON_AND_ORGANIZATION ( #70, #111 ) ;
#23 = ORIENTED_EDGE ( 'NONE', *, *, #229, .T. ) ;
#24 = PERSON_AND_ORGANIZATION_ROLE ( 'creator' ) ;
#25 = EDGE_LOOP ( 'NONE', ( #153 ) ) ;
#26 = CIRCLE ( 'NONE', #127, 3.000000000000000888 ) ;
#27 = FACE_OUTER_BOUND ( 'NONE', #195, .T. ) ;
#28 = ORIENTED_EDGE ( 'NONE', *, *, #241, .T. ) ;
#29 = FACE_OUTER_BOUND ( 'NONE', #162, .T. ) ;
#30 = EDGE_LOOP ( 'NONE', ( #23 ) ) ;
#31 = PRODUCT_RELATED_PRODUCT_CATEGORY ( 'detail', '', ( #160 ) ) ;
#32 = LOCAL_TIME ( 8, 8, 17.00000000000000000, #213 ) ;
#33 = FACE_OUTER_BOUND ( 'NONE', #119, .T. ) ;
#34 = CARTESIAN_POINT ( 'NONE',  ( 0.0000000000000000000, 0.0000000000000000000, 0.0000000000000000000 ) ) ;
#35 = CARTESIAN_POINT ( 'NONE',  ( 3.491481338843133355E-14, 2.249639673992784496E-32, 10.00000000000000000 ) ) ;
#36 = CC_DESIGN_APPROVAL ( #163, ( #55 ) ) ;
#37 = DATE_TIME_ROLE ( 'classification_date' ) ;
#38 = ADVANCED_FACE ( 'NONE', ( #27 ), #101, .F. ) ;
#39 = SECURITY_CLASSIFICATION_LEVEL ( 'unclassified' ) ;
#40 = APPROVAL_DATE_TIME ( #114, #43 ) ;
#41 = SHAPE_DEFINITION_REPRESENTATION ( #46, #58 ) ;
#42 = EDGE_LOOP ( 'NONE', ( #142 ) ) ;
#43 = APPROVAL ( #173, 'UNSPECIFIED' ) ;
#44 = CARTESIAN_POINT ( 'NONE',  ( 4.184300688578268143E-14, -1.977483907951035192E-15, 11.98431348329844859 ) ) ;
#45 = AXIS2_PLACEMENT_3D ( 'NONE', #128, #109, #110 ) ;
#46 = PRODUCT_DEFINITION_SHAPE ( 'NONE', 'NONE',  #86 ) ;
#47 = EDGE_LOOP ( 'NONE', ( #64 ) ) ;
#48 = ORIENTED_EDGE ( 'NONE', *, *, #49, .F. ) ;
#49 = EDGE_CURVE ( 'NONE', #165, #165, #231, .T. ) ;
#50 = DIRECTION ( 'NONE',  ( -4.275831445896958607E-31, -1.000000000000000000, -1.224646799147353207E-16 ) ) ;
#51 = AXIS2_PLACEMENT_3D ( 'NONE', #15, #129, #73 ) ;
#52 = CARTESIAN_POINT ( 'NONE',  ( 3.491481338843133355E-16, 0.0000000000000000000, 0.1000000000000000056 ) ) ;
#53 = VERTEX_POINT ( 'NONE', #228 ) ;
#54 = FACE_OUTER_BOUND ( 'NONE', #42, .T. ) ;
#55 = PRODUCT_DEFINITION_FORMATION_WITH_SPECIFIED_SOURCE ( 'ANY', '', #160, .NOT_KNOWN. ) ;
#56 = FACE_OUTER_BOUND ( 'NONE', #47, .T. ) ;
#57 = VERTEX_POINT ( 'NONE', #240 ) ;
#58 = ADVANCED_BREP_SHAPE_REPRESENTATION ( '56303', ( #135, #132, #217 ), #16 ) ;
#59 = PERSON_AND_ORGANIZATION ( #70, #111 ) ;
#60 = CIRCLE ( 'NONE', #83, 2.750000000000000444 ) ;
#61 = CALENDAR_DATE ( 2021, 12, 11 ) ;
#62 = AXIS2_PLACEMENT_3D ( 'NONE', #35, #206, #147 ) ;
#63 = PLANE ( 'NONE',  #221 ) ;
#64 = ORIENTED_EDGE ( 'NONE', *, *, #229, .F. ) ;
#65 = AXIS2_PLACEMENT_3D ( 'NONE', #144, #223, #17 ) ;
#66 = FACE_OUTER_BOUND ( 'NONE', #25, .T. ) ;
#67 = EDGE_LOOP ( 'NONE', ( #10 ) ) ;
#68 = DIRECTION ( 'NONE',  ( -4.328121126391817192E-31, -1.000000000000000000, -1.223397583181748052E-16 ) ) ;
#69 = TOROIDAL_SURFACE ( 'NONE', #192, 10.75000000000000000, 8.000000000000000000 ) ;
#70 = PERSON ( 'UNSPECIFIED', 'UNSPECIFIED', 'UNSPECIFIED', ('UNSPECIFIED'), ('UNSPECIFIED'), ('UNSPECIFIED') ) ;
#71 = DIRECTION ( 'NONE',  ( 1.000000000000000000, 0.0000000000000000000, 0.0000000000000000000 ) ) ;
#72 = VERTEX_POINT ( 'NONE', #76 ) ;
#73 = DIRECTION ( 'NONE',  ( 4.275831445896958607E-31, 1.000000000000000000, 1.224646799147353207E-16 ) ) ;
#74 = CC_DESIGN_APPROVAL ( #180, ( #224 ) ) ;
#75 = ADVANCED_FACE ( 'NONE', ( #218, #107 ), #201, .T. ) ;
#76 = CARTESIAN_POINT ( 'NONE',  ( 1.724791781388508004E-13, 2.999999999999995559, 49.39999999999999858 ) ) ;
#77 = AXIS2_PLACEMENT_3D ( 'NONE', #177, #158, #196 ) ;
#78 = EDGE_CURVE ( 'NONE', #96, #96, #149, .T. ) ;
#79 = DATE_AND_TIME ( #130, #32 ) ;
#80 = CALENDAR_DATE ( 2021, 12, 11 ) ;
#81 = ORIENTED_EDGE ( 'NONE', *, *, #204, .F. ) ;
#82 = DATE_AND_TIME ( #61, #116 ) ;
#83 = AXIS2_PLACEMENT_3D ( 'NONE', #202, #120, #233 ) ;
#84 = FACE_OUTER_BOUND ( 'NONE', #67, .T. ) ;
#85 = DIRECTION ( 'NONE',  ( 1.000000000000000000, 0.0000000000000000000, -3.489159718726077727E-15 ) ) ;
#86 = PRODUCT_DEFINITION ( 'UNKNOWN', '', #55, #124 ) ;
#87 = DIRECTION ( 'NONE',  ( 3.491481338843133355E-15, -1.223397583181748052E-16, 1.000000000000000000 ) ) ;
#88 = CC_DESIGN_APPROVAL ( #43, ( #86 ) ) ;
#89 = FACE_BOUND ( 'NONE', #30, .T. ) ;
#90 = DIRECTION ( 'NONE',  ( 0.0000000000000000000, 1.000000000000000000, 0.0000000000000000000 ) ) ;
#91 = LOCAL_TIME ( 8, 8, 17.00000000000000000, #150 ) ;
#92 =( LENGTH_UNIT ( ) NAMED_UNIT ( * ) SI_UNIT ( .MILLI., .METRE. ) );
#93 = CYLINDRICAL_SURFACE ( 'NONE', #51, 3.000000000000000888 ) ;
#94 = CC_DESIGN_PERSON_AND_ORGANIZATION_ASSIGNMENT ( #59, #98, ( #160 ) ) ;
#95 = AXIS2_PLACEMENT_3D ( 'NONE', #121, #219, #157 ) ;
#96 = VERTEX_POINT ( 'NONE', #125 ) ;
#97 = PERSON_AND_ORGANIZATION ( #70, #111 ) ;
#98 = PERSON_AND_ORGANIZATION_ROLE ( 'design_owner' ) ;
#99 = PERSON_AND_ORGANIZATION_ROLE ( 'classification_officer' ) ;
#100 = ORIENTED_EDGE ( 'NONE', *, *, #134, .F. ) ;
#101 = PLANE ( 'NONE',  #210 ) ;
#102 = DIRECTION ( 'NONE',  ( 3.491481338843133355E-15, -0.0000000000000000000, 1.000000000000000000 ) ) ;
#103 = ADVANCED_FACE ( 'NONE', ( #89, #29 ), #159, .T. ) ;
#104 = FACE_OUTER_BOUND ( 'NONE', #2, .T. ) ;
#105 = EDGE_LOOP ( 'NONE', ( #200 ) ) ;
#106 = AXIS2_PLACEMENT_3D ( 'NONE', #216, #234, #6 ) ;
#107 = FACE_OUTER_BOUND ( 'NONE', #198, .T. ) ;
#108 = DIRECTION ( 'NONE',  ( 0.0000000000000000000, 1.000000000000000000, 0.0000000000000000000 ) ) ;
#109 = DIRECTION ( 'NONE',  ( 3.491481338843133355E-15, -1.223397583181748052E-16, 1.000000000000000000 ) ) ;
#110 = DIRECTION ( 'NONE',  ( 0.0000000000000000000, -1.000000000000000000, 0.0000000000000000000 ) ) ;
#111 = ORGANIZATION ( 'UNSPECIFIED', 'UNSPECIFIED', '' ) ;
#112 = COORDINATED_UNIVERSAL_TIME_OFFSET ( 1, 0, .AHEAD. ) ;
#113 = CC_DESIGN_PERSON_AND_ORGANIZATION_ASSIGNMENT ( #155, #24, ( #55 ) ) ;
#114 = DATE_AND_TIME ( #193, #242 ) ;
#115 = APPROVAL_ROLE ( '' ) ;
#116 = LOCAL_TIME ( 8, 8, 17.00000000000000000, #209 ) ;
#117 = CYLINDRICAL_SURFACE ( 'NONE', #176, 2.750000000000000000 ) ;
#118 = EDGE_CURVE ( 'NONE', #13, #13, #60, .T. ) ;
#119 = EDGE_LOOP ( 'NONE', ( #28 ) ) ;
#120 = DIRECTION ( 'NONE',  ( 3.491481338843133355E-15, -1.223397583181748052E-16, 1.000000000000000000 ) ) ;
#121 = CARTESIAN_POINT ( 'NONE',  ( 3.491481338843133355E-16, 0.0000000000000000000, 0.1000000000000000056 ) ) ;
#122 = CC_DESIGN_DATE_AND_TIME_ASSIGNMENT ( #148, #1, ( #86 ) ) ;
#123 = CARTESIAN_POINT ( 'NONE',  ( 2.750000000000000444, 0.0000000000000000000, 0.09999999999999041600 ) ) ;
#124 = DESIGN_CONTEXT ( 'detailed design', #21, 'design' ) ;
#125 = CARTESIAN_POINT ( 'NONE',  ( 2.649999999999999467, 0.0000000000000000000, -9.265978075090370619E-15 ) ) ;
#126 = DIRECTION ( 'NONE',  ( 4.275831445896958607E-31, 1.000000000000000000, 1.224646799147353207E-16 ) ) ;
#127 = AXIS2_PLACEMENT_3D ( 'NONE', #44, #182, #90 ) ;
#128 = CARTESIAN_POINT ( 'NONE',  ( 3.491481338843132724E-14, -1.223397583181747953E-15, 9.999999999999998224 ) ) ;
#129 = DIRECTION ( 'NONE',  ( -3.491481338843133355E-15, 1.224646799147353207E-16, -1.000000000000000000 ) ) ;
#130 = CALENDAR_DATE ( 2021, 12, 11 ) ;
#131 = PERSON_AND_ORGANIZATION ( #70, #111 ) ;
#132 = MANIFOLD_SOLID_BREP ( 'Corps-Déplacer/Copier1[2]', #211 ) ;
#133 = PERSON_AND_ORGANIZATION_ROLE ( 'design_supplier' ) ;
#134 = EDGE_CURVE ( 'NONE', #53, #53, #26, .T. ) ;
#135 = MANIFOLD_SOLID_BREP ( 'Corps-Déplacer/Copier1[1]', #197 ) ;
#136 = APPROVAL_ROLE ( '' ) ;
#137 = APPROVAL_PERSON_ORGANIZATION ( #22, #43, #115 ) ;
#138 = DIRECTION ( 'NONE',  ( 3.491481338843133355E-15, -1.224646799147353207E-16, 1.000000000000000000 ) ) ;
#139 = DIRECTION ( 'NONE',  ( -3.491481338843133355E-15, 1.224646799147353207E-16, -1.000000000000000000 ) ) ;
#140 = ORIENTED_EDGE ( 'NONE', *, *, #78, .T. ) ;
#141 = ADVANCED_FACE ( 'NONE', ( #164, #161 ), #69, .F. ) ;
#142 = ORIENTED_EDGE ( 'NONE', *, *, #204, .T. ) ;
#143 = APPROVAL_PERSON_ORGANIZATION ( #214, #180, #243 ) ;
#144 = CARTESIAN_POINT ( 'NONE',  ( 1.724791781388508004E-13, -6.049755187787925154E-15, 49.39999999999999858 ) ) ;
#145 = PLANE ( 'NONE',  #62 ) ;
#146 =( NAMED_UNIT ( * ) SI_UNIT ( $, .STERADIAN. ) SOLID_ANGLE_UNIT ( ) );
#147 = DIRECTION ( 'NONE',  ( -4.275831445896958607E-31, -1.000000000000000000, -1.224646799147353207E-16 ) ) ;
#148 = DATE_AND_TIME ( #152, #91 ) ;
#149 = CIRCLE ( 'NONE', #77, 2.649999999999999467 ) ;
#150 = COORDINATED_UNIVERSAL_TIME_OFFSET ( 1, 0, .AHEAD. ) ;
#151 = DATE_AND_TIME ( #80, #171 ) ;
#152 = CALENDAR_DATE ( 2021, 12, 11 ) ;
#153 = ORIENTED_EDGE ( 'NONE', *, *, #78, .F. ) ;
#154 = AXIS2_PLACEMENT_3D ( 'NONE', #205, #203, #185 ) ;
#155 = PERSON_AND_ORGANIZATION ( #70, #111 ) ;
#156 = CC_DESIGN_PERSON_AND_ORGANIZATION_ASSIGNMENT ( #131, #18, ( #86 ) ) ;
#157 = DIRECTION ( 'NONE',  ( 1.000000000000000000, 0.0000000000000000000, -3.489159718726077727E-15 ) ) ;
#158 = DIRECTION ( 'NONE',  ( 3.491481338843133355E-15, -0.0000000000000000000, 1.000000000000000000 ) ) ;
#159 = CONICAL_SURFACE ( 'NONE', #106, 3.000000000000001776, 0.7853981633974453924 ) ;
#160 = PRODUCT ( '56303', '56303', '', ( #12 ) ) ;
#161 = FACE_OUTER_BOUND ( 'NONE', #194, .T. ) ;
#162 = EDGE_LOOP ( 'NONE', ( #178 ) ) ;
#163 = APPROVAL ( #4, 'UNSPECIFIED' ) ;
#164 = FACE_OUTER_BOUND ( 'NONE', #235, .T. ) ;
#165 = VERTEX_POINT ( 'NONE', #123 ) ;
#166 = CARTESIAN_POINT ( 'NONE',  ( 3.491481338843132724E-14, -2.750000000000001776, 9.999999999999998224 ) ) ;
#167 = APPLICATION_PROTOCOL_DEFINITION ( 'international standard', 'config_control_design', 1994, #208 ) ;
#168 = AXIS2_PLACEMENT_3D ( 'NONE', #52, #102, #85 ) ;
#169 = CARTESIAN_POINT ( 'NONE',  ( 3.491481338843132724E-14, -2.750000000000001776, 9.999999999999998224 ) ) ;
#170 = APPROVAL_STATUS ( 'not_yet_approved' ) ;
#171 = LOCAL_TIME ( 8, 8, 17.00000000000000000, #174 ) ;
#172 = APPLICATION_PROTOCOL_DEFINITION ( 'international standard', 'config_control_design', 1994, #21 ) ;
#173 = APPROVAL_STATUS ( 'not_yet_approved' ) ;
#174 = COORDINATED_UNIVERSAL_TIME_OFFSET ( 1, 0, .AHEAD. ) ;
#175 = CC_DESIGN_SECURITY_CLASSIFICATION ( #224, ( #55 ) ) ;
#176 = AXIS2_PLACEMENT_3D ( 'NONE', #222, #220, #7 ) ;
#177 = CARTESIAN_POINT ( 'NONE',  ( -4.731839565957903391E-32, 0.0000000000000000000, -1.355252715606880543E-17 ) ) ;
#178 = ORIENTED_EDGE ( 'NONE', *, *, #241, .F. ) ;
#179 = CARTESIAN_POINT ( 'NONE',  ( -6.413747168845438786E-31, 2.249639673992786412E-32, -1.836970198721029934E-16 ) ) ;
#180 = APPROVAL ( #170, 'UNSPECIFIED' ) ;
#181 = CARTESIAN_POINT ( 'NONE',  ( 3.491481338843133355E-14, 2.249639673992784496E-32, 10.00000000000000000 ) ) ;
#182 = DIRECTION ( 'NONE',  ( 3.491481338843133355E-15, -1.223397583181748052E-16, 1.000000000000000000 ) ) ;
#183 = ADVANCED_FACE ( 'NONE', ( #66 ), #63, .T. ) ;
#184 = CIRCLE ( 'NONE', #65, 3.000000000000001776 ) ;
#185 = DIRECTION ( 'NONE',  ( 4.275831445896958607E-31, 1.000000000000000000, 1.224646799147353207E-16 ) ) ;
#186 = VERTEX_POINT ( 'NONE', #169 ) ;
#187 = DIRECTION ( 'NONE',  ( 0.0000000000000000000, 0.0000000000000000000, 1.000000000000000000 ) ) ;
#188 = CARTESIAN_POINT ( 'NONE',  ( 1.745740669421566678E-13, -6.123233995736766085E-15, 50.00000000000000000 ) ) ;
#189 = APPROVAL_DATE_TIME ( #151, #180 ) ;
#190 = CC_DESIGN_PERSON_AND_ORGANIZATION_ASSIGNMENT ( #97, #99, ( #224 ) ) ;
#191 = PERSON_AND_ORGANIZATION ( #70, #111 ) ;
#192 = AXIS2_PLACEMENT_3D ( 'NONE', #8, #87, #68 ) ;
#193 = CALENDAR_DATE ( 2021, 12, 11 ) ;
#194 = EDGE_LOOP ( 'NONE', ( #9 ) ) ;
#195 = EDGE_LOOP ( 'NONE', ( #236 ) ) ;
#196 = DIRECTION ( 'NONE',  ( 1.000000000000000000, 0.0000000000000000000, -3.491481338843133355E-15 ) ) ;
#197 = CLOSED_SHELL ( 'NONE', ( #226, #103, #207, #141, #38 ) ) ;
#198 = EDGE_LOOP ( 'NONE', ( #48 ) ) ;
#199 = EDGE_LOOP ( 'NONE', ( #140 ) ) ;
#200 = ORIENTED_EDGE ( 'NONE', *, *, #134, .T. ) ;
#201 = CONICAL_SURFACE ( 'NONE', #95, 2.750000000000000000, 0.7853981633974495002 ) ;
#202 = CARTESIAN_POINT ( 'NONE',  ( 3.491481338843132724E-14, -1.223397583181747953E-15, 9.999999999999998224 ) ) ;
#203 = DIRECTION ( 'NONE',  ( -3.491481338843133355E-15, 1.224646799147353207E-16, -1.000000000000000000 ) ) ;
#204 = EDGE_CURVE ( 'NONE', #186, #186, #5, .T. ) ;
#205 = CARTESIAN_POINT ( 'NONE',  ( 1.745740669421566678E-13, 1.799711739194221740E-32, 50.00000000000000000 ) ) ;
#206 = DIRECTION ( 'NONE',  ( 3.491481338843133355E-15, -1.224646799147353207E-16, 1.000000000000000000 ) ) ;
#207 = ADVANCED_FACE ( 'NONE', ( #56 ), #225, .F. ) ;
#208 = APPLICATION_CONTEXT ( 'configuration controlled 3d designs of mechanical parts and assemblies' ) ;
#209 = COORDINATED_UNIVERSAL_TIME_OFFSET ( 1, 0, .AHEAD. ) ;
#210 = AXIS2_PLACEMENT_3D ( 'NONE', #181, #138, #50 ) ;
#211 = CLOSED_SHELL ( 'NONE', ( #3, #215, #75, #183 ) ) ;
#212 = CC_DESIGN_PERSON_AND_ORGANIZATION_ASSIGNMENT ( #230, #133, ( #55 ) ) ;
#213 = COORDINATED_UNIVERSAL_TIME_OFFSET ( 1, 0, .AHEAD. ) ;
#214 = PERSON_AND_ORGANIZATION ( #70, #111 ) ;
#215 = ADVANCED_FACE ( 'NONE', ( #54 ), #145, .T. ) ;
#216 = CARTESIAN_POINT ( 'NONE',  ( 1.724791781388508004E-13, -6.049755187787925154E-15, 49.39999999999999858 ) ) ;
#217 = AXIS2_PLACEMENT_3D ( 'NONE', #34, #187, #71 ) ;
#218 = FACE_BOUND ( 'NONE', #199, .T. ) ;
#219 = DIRECTION ( 'NONE',  ( 3.491481338843133355E-15, -0.0000000000000000000, 1.000000000000000000 ) ) ;
#220 = DIRECTION ( 'NONE',  ( 3.491481338843133355E-15, -1.223397583181748052E-16, 1.000000000000000000 ) ) ;
#221 = AXIS2_PLACEMENT_3D ( 'NONE', #179, #139, #126 ) ;
#222 = CARTESIAN_POINT ( 'NONE',  ( 0.0000000000000000000, 0.0000000000000000000, 0.0000000000000000000 ) ) ;
#223 = DIRECTION ( 'NONE',  ( -3.491481338843133355E-15, 1.224646799147353207E-16, -1.000000000000000000 ) ) ;
#224 = SECURITY_CLASSIFICATION ( '', '', #39 ) ;
#225 = PLANE ( 'NONE',  #154 ) ;
#226 = ADVANCED_FACE ( 'NONE', ( #33, #239 ), #93, .T. ) ;
#227 = DIRECTION ( 'NONE',  ( -3.491481338843133355E-15, 1.224646799147353207E-16, -1.000000000000000000 ) ) ;
#228 = CARTESIAN_POINT ( 'NONE',  ( 4.184300688578268143E-14, 2.999999999999998668, 11.98431348329844859 ) ) ;
#229 = EDGE_CURVE ( 'NONE', #57, #57, #232, .T. ) ;
#230 = PERSON_AND_ORGANIZATION ( #70, #111 ) ;
#231 = CIRCLE ( 'NONE', #168, 2.750000000000000000 ) ;
#232 = CIRCLE ( 'NONE', #238, 2.400000000000002132 ) ;
#233 = DIRECTION ( 'NONE',  ( 0.0000000000000000000, -1.000000000000000000, 0.0000000000000000000 ) ) ;
#234 = DIRECTION ( 'NONE',  ( -3.491481338843133355E-15, 1.224646799147353207E-16, -1.000000000000000000 ) ) ;
#235 = EDGE_LOOP ( 'NONE', ( #100 ) ) ;
#236 = ORIENTED_EDGE ( 'NONE', *, *, #118, .F. ) ;
#237 =( NAMED_UNIT ( * ) PLANE_ANGLE_UNIT ( ) SI_UNIT ( $, .RADIAN. ) );
#238 = AXIS2_PLACEMENT_3D ( 'NONE', #188, #227, #108 ) ;
#239 = FACE_OUTER_BOUND ( 'NONE', #105, .T. ) ;
#240 = CARTESIAN_POINT ( 'NONE',  ( 1.745740669421566678E-13, 2.399999999999995914, 50.00000000000000000 ) ) ;
#241 = EDGE_CURVE ( 'NONE', #72, #72, #184, .T. ) ;
#242 = LOCAL_TIME ( 8, 8, 17.00000000000000000, #112 ) ;
#243 = APPROVAL_ROLE ( '' ) ;
ENDSEC;
END-ISO-10303-21;
