ISO-10303-21;
HEADER;
FILE_DESCRIPTION (( 'STEP AP203' ),
    '1' );
FILE_NAME ('55964.step',
    '2021-11-15T14:31:32',
    ( '' ),
    ( '' ),
    'SwSTEP 2.0',
    'SolidWorks 2019',
    '' );
FILE_SCHEMA (( 'CONFIG_CONTROL_DESIGN' ));
ENDSEC;

DATA;
#1 = COORDINATED_UNIVERSAL_TIME_OFFSET ( 1, 0, .AHEAD. ) ;
#2 = AXIS2_PLACEMENT_3D ( 'NONE', #35, #60, #75 ) ;
#3 = VERTEX_POINT ( 'NONE', #155 ) ;
#4 = ADVANCED_FACE ( 'NONE', ( #197 ), #9, .F. ) ;
#5 =( LENGTH_UNIT ( ) NAMED_UNIT ( * ) SI_UNIT ( .MILLI., .METRE. ) );
#6 = ORIENTED_EDGE ( 'NONE', *, *, #113, .F. ) ;
#7 = CYLINDRICAL_SURFACE ( 'NONE', #147, 0.4999999999999995559 ) ;
#8 = PERSON_AND_ORGANIZATION ( #181, #179 ) ;
#9 = PLANE ( 'NONE',  #117 ) ;
#10 = PLANE ( 'NONE',  #220 ) ;
#11 = FACE_OUTER_BOUND ( 'NONE', #226, .T. ) ;
#12 = EDGE_CURVE ( 'NONE', #157, #157, #151, .T. ) ;
#13 = APPROVAL_DATE_TIME ( #26, #219 ) ;
#14 = ORIENTED_EDGE ( 'NONE', *, *, #168, .T. ) ;
#15 = AXIS2_PLACEMENT_3D ( 'NONE', #21, #158, #233 ) ;
#16 = COORDINATED_UNIVERSAL_TIME_OFFSET ( 1, 0, .AHEAD. ) ;
#17 = CARTESIAN_POINT ( 'NONE',  ( 1.326762908760390423E-13, 1.199999999999991962, 38.00000000000000000 ) ) ;
#18 = DATE_AND_TIME ( #166, #170 ) ;
#19 = EDGE_CURVE ( 'NONE', #169, #169, #138, .T. ) ;
#20 = CIRCLE ( 'NONE', #174, 1.499999999999996669 ) ;
#21 = CARTESIAN_POINT ( 'NONE',  ( 1.047444401652940007E-14, 1.124819836996387048E-32, 3.000000000000000000 ) ) ;
#22 = DIRECTION ( 'NONE',  ( 0.0000000000000000000, -1.000000000000000000, 0.0000000000000000000 ) ) ;
#23 = DIRECTION ( 'NONE',  ( -4.275831445896958607E-31, -1.000000000000000000, -1.224646799147353207E-16 ) ) ;
#24 = CARTESIAN_POINT ( 'NONE',  ( 1.326762908760390423E-13, -4.653657836759941941E-15, 38.00000000000000000 ) ) ;
#25 = EDGE_CURVE ( 'NONE', #186, #186, #102, .T. ) ;
#26 = DATE_AND_TIME ( #243, #185 ) ;
#27 = DIRECTION ( 'NONE',  ( 3.491481338843133355E-15, -1.243677319851284845E-16, 1.000000000000000000 ) ) ;
#28 = EDGE_LOOP ( 'NONE', ( #37 ) ) ;
#29 = AXIS2_PLACEMENT_3D ( 'NONE', #45, #145, #127 ) ;
#30 = DIRECTION ( 'NONE',  ( 3.491481338843133355E-15, -1.243677319851284845E-16, 1.000000000000000000 ) ) ;
#31 = CC_DESIGN_PERSON_AND_ORGANIZATION_ASSIGNMENT ( #70, #211, ( #85 ) ) ;
#32 = APPLICATION_PROTOCOL_DEFINITION ( 'international standard', 'config_control_design', 1994, #232 ) ;
#33 = FACE_OUTER_BOUND ( 'NONE', #90, .T. ) ;
#34 = PERSON_AND_ORGANIZATION_ROLE ( 'classification_officer' ) ;
#35 = CARTESIAN_POINT ( 'NONE',  ( -2.171138076901598431E-31, -1.511206867367550980E-32, -6.218386599256414365E-17 ) ) ;
#36 = VERTEX_POINT ( 'NONE', #93 ) ;
#37 = ORIENTED_EDGE ( 'NONE', *, *, #25, .F. ) ;
#38 = EDGE_LOOP ( 'NONE', ( #182 ) ) ;
#39 = ORIENTED_EDGE ( 'NONE', *, *, #146, .T. ) ;
#40 = ADVANCED_FACE ( 'NONE', ( #194 ), #114, .T. ) ;
#41 = FACE_BOUND ( 'NONE', #129, .T. ) ;
#42 = DIRECTION ( 'NONE',  ( -3.491481338843133355E-15, 1.224646799147353207E-16, -1.000000000000000000 ) ) ;
#43 = AXIS2_PLACEMENT_3D ( 'NONE', #116, #91, #111 ) ;
#44 = CARTESIAN_POINT ( 'NONE',  ( 3.745453999408934035E-14, -1.334143230206868351E-15, 10.72740661031272147 ) ) ;
#45 = CARTESIAN_POINT ( 'NONE',  ( 1.326762908760390423E-13, -4.653657836759941941E-15, 38.00000000000000000 ) ) ;
#46 = SECURITY_CLASSIFICATION ( '', '', #229 ) ;
#47 = ORIENTED_EDGE ( 'NONE', *, *, #19, .F. ) ;
#48 = APPLICATION_PROTOCOL_DEFINITION ( 'international standard', 'config_control_design', 1994, #195 ) ;
#49 = DIRECTION ( 'NONE',  ( -3.491481338843133355E-15, 1.224646799147353207E-16, -1.000000000000000000 ) ) ;
#50 = CLOSED_SHELL ( 'NONE', ( #61, #64, #4, #81, #162, #103 ) ) ;
#51 = AXIS2_PLACEMENT_3D ( 'NONE', #44, #101, #178 ) ;
#52 = CC_DESIGN_DATE_AND_TIME_ASSIGNMENT ( #225, #156, ( #124 ) ) ;
#53 = PLANE ( 'NONE',  #119 ) ;
#54 = COORDINATED_UNIVERSAL_TIME_OFFSET ( 1, 0, .AHEAD. ) ;
#55 = CARTESIAN_POINT ( 'NONE',  ( -6.413677916074933265E-31, 0.0000000000000000000, -1.836950363939232727E-16 ) ) ;
#56 = APPROVAL_STATUS ( 'not_yet_approved' ) ;
#57 = FACE_OUTER_BOUND ( 'NONE', #132, .T. ) ;
#58 = CARTESIAN_POINT ( 'NONE',  ( 2.442415424384780940E-14, -1.499999999999995781, 6.995355802743743467 ) ) ;
#59 = DIRECTION ( 'NONE',  ( 4.275831445896958607E-31, 1.000000000000000000, 1.224646799147353207E-16 ) ) ;
#60 = DIRECTION ( 'NONE',  ( 3.491481338843133355E-15, -1.243677319851284845E-16, 1.000000000000000000 ) ) ;
#61 = ADVANCED_FACE ( 'NONE', ( #57, #224 ), #202, .T. ) ;
#62 = DIRECTION ( 'NONE',  ( 0.0000000000000000000, 1.000000000000000000, 0.0000000000000000000 ) ) ;
#63 = EDGE_LOOP ( 'NONE', ( #175 ) ) ;
#64 = ADVANCED_FACE ( 'NONE', ( #11, #41 ), #144, .T. ) ;
#65 = LOCAL_TIME ( 15, 31, 32.00000000000000000, #16 ) ;
#66 = LOCAL_TIME ( 15, 31, 32.00000000000000000, #209 ) ;
#67 = PERSON_AND_ORGANIZATION_ROLE ( 'creator' ) ;
#68 = DIRECTION ( 'NONE',  ( -3.491481338843133355E-15, 1.224646799147353207E-16, -1.000000000000000000 ) ) ;
#69 = DATE_AND_TIME ( #131, #65 ) ;
#70 = PERSON_AND_ORGANIZATION ( #181, #179 ) ;
#71 = ORIENTED_EDGE ( 'NONE', *, *, #12, .F. ) ;
#72 = AXIS2_PLACEMENT_3D ( 'NONE', #136, #30, #190 ) ;
#73 = DIRECTION ( 'NONE',  ( 3.491481338843133355E-15, -1.243677319851284845E-16, 1.000000000000000000 ) ) ;
#74 = PERSON_AND_ORGANIZATION_ROLE ( 'design_supplier' ) ;
#75 = DIRECTION ( 'NONE',  ( -4.342276153803203868E-31, -1.000000000000000000, -1.243677319851284845E-16 ) ) ;
#76 = CARTESIAN_POINT ( 'NONE',  ( 0.0000000000000000000, 0.0000000000000000000, 0.0000000000000000000 ) ) ;
#77 = EDGE_LOOP ( 'NONE', ( #94 ) ) ;
#78 = VERTEX_POINT ( 'NONE', #58 ) ;
#79 = CC_DESIGN_SECURITY_CLASSIFICATION ( #46, ( #85 ) ) ;
#80 = DIRECTION ( 'NONE',  ( -3.491481338843133355E-15, 1.224646799147353207E-16, -1.000000000000000000 ) ) ;
#81 = ADVANCED_FACE ( 'NONE', ( #130, #99 ), #235, .T. ) ;
#82 = APPROVAL_PERSON_ORGANIZATION ( #183, #219, #107 ) ;
#83 = DIRECTION ( 'NONE',  ( 3.491481338843133355E-15, -1.224646799147353207E-16, 1.000000000000000000 ) ) ;
#84 = CLOSED_SHELL ( 'NONE', ( #40, #201, #196 ) ) ;
#85 = PRODUCT_DEFINITION_FORMATION_WITH_SPECIFIED_SOURCE ( 'ANY', '', #161, .NOT_KNOWN. ) ;
#86 = PRODUCT_RELATED_PRODUCT_CATEGORY ( 'detail', '', ( #161 ) ) ;
#87 = DESIGN_CONTEXT ( 'detailed design', #195, 'design' ) ;
#88 = DATE_TIME_ROLE ( 'classification_date' ) ;
#89 = CC_DESIGN_APPROVAL ( #135, ( #46 ) ) ;
#90 = EDGE_LOOP ( 'NONE', ( #184 ) ) ;
#91 = DIRECTION ( 'NONE',  ( -3.491481338843133355E-15, 1.243677319851284845E-16, -1.000000000000000000 ) ) ;
#92 = CARTESIAN_POINT ( 'NONE',  ( -4.342276153803198613E-31, -0.4999999999999995559, -1.243677319851283366E-16 ) ) ;
#93 = CARTESIAN_POINT ( 'NONE',  ( 1.316288464743861212E-13, 1.499999999999992228, 37.69999999999999574 ) ) ;
#94 = ORIENTED_EDGE ( 'NONE', *, *, #154, .F. ) ;
#95 = DIRECTION ( 'NONE',  ( 3.491481338843133355E-15, -1.224646799147353207E-16, 1.000000000000000000 ) ) ;
#96 = FACE_OUTER_BOUND ( 'NONE', #28, .T. ) ;
#97 = CC_DESIGN_PERSON_AND_ORGANIZATION_ASSIGNMENT ( #231, #67, ( #124 ) ) ;
#98 = ADVANCED_BREP_SHAPE_REPRESENTATION ( '55964', ( #123, #216, #141 ), #240 ) ;
#99 = FACE_OUTER_BOUND ( 'NONE', #208, .T. ) ;
#100 = CIRCLE ( 'NONE', #43, 1.499999999999994893 ) ;
#101 = DIRECTION ( 'NONE',  ( 3.491481338843133355E-15, -1.243677319851284845E-16, 1.000000000000000000 ) ) ;
#102 = CIRCLE ( 'NONE', #2, 0.4999999999999995559 ) ;
#103 = ADVANCED_FACE ( 'NONE', ( #180 ), #10, .F. ) ;
#104 = CARTESIAN_POINT ( 'NONE',  ( 0.0000000000000000000, 0.0000000000000000000, 0.0000000000000000000 ) ) ;
#105 = PERSON_AND_ORGANIZATION_ROLE ( 'design_owner' ) ;
#106 = FACE_OUTER_BOUND ( 'NONE', #188, .T. ) ;
#107 = APPROVAL_ROLE ( '' ) ;
#108 = CC_DESIGN_APPROVAL ( #219, ( #85 ) ) ;
#109 = ORIENTED_EDGE ( 'NONE', *, *, #113, .T. ) ;
#110 = MECHANICAL_CONTEXT ( 'NONE', #232, 'mechanical' ) ;
#111 = DIRECTION ( 'NONE',  ( 0.0000000000000000000, -1.000000000000000000, 0.0000000000000000000 ) ) ;
#112 = APPROVAL_DATE_TIME ( #241, #135 ) ;
#113 = EDGE_CURVE ( 'NONE', #149, #149, #125, .T. ) ;
#114 = PLANE ( 'NONE',  #15 ) ;
#115 = AXIS2_PLACEMENT_3D ( 'NONE', #191, #27, #22 ) ;
#116 = CARTESIAN_POINT ( 'NONE',  ( 2.442415424384780940E-14, -8.699965356162472620E-16, 6.995355802743743467 ) ) ;
#117 = AXIS2_PLACEMENT_3D ( 'NONE', #143, #80, #59 ) ;
#118 = CARTESIAN_POINT ( 'NONE',  ( 1.228176774875465645E-14, -4.374806712232981811E-16, 3.517638090205028600 ) ) ;
#119 = AXIS2_PLACEMENT_3D ( 'NONE', #213, #95, #234 ) ;
#120 = AXIS2_PLACEMENT_3D ( 'NONE', #118, #212, #139 ) ;
#121 = TOROIDAL_SURFACE ( 'NONE', #72, 2.499999999999999556, 2.000000000000000000 ) ;
#122 = CARTESIAN_POINT ( 'NONE',  ( 1.047444401652940007E-14, 1.124819836996387048E-32, 3.000000000000000000 ) ) ;
#123 = MANIFOLD_SOLID_BREP ( 'Corps-Déplacer/Copier1[1]', #50 ) ;
#124 = PRODUCT_DEFINITION ( 'UNKNOWN', '', #85, #87 ) ;
#125 = CIRCLE ( 'NONE', #29, 1.199999999999996403 ) ;
#126 = ORIENTED_EDGE ( 'NONE', *, *, #12, .T. ) ;
#127 = DIRECTION ( 'NONE',  ( 0.0000000000000000000, 1.000000000000000000, 0.0000000000000000000 ) ) ;
#128 = PERSON_AND_ORGANIZATION ( #181, #179 ) ;
#129 = EDGE_LOOP ( 'NONE', ( #109 ) ) ;
#130 = FACE_BOUND ( 'NONE', #38, .T. ) ;
#131 = CALENDAR_DATE ( 2021, 15, 11 ) ;
#132 = EDGE_LOOP ( 'NONE', ( #39 ) ) ;
#133 = DIRECTION ( 'NONE',  ( 1.000000000000000000, 0.0000000000000000000, 0.0000000000000000000 ) ) ;
#134 = SHAPE_DEFINITION_REPRESENTATION ( #176, #98 ) ;
#135 = APPROVAL ( #150, 'UNSPECIFIED' ) ;
#136 = CARTESIAN_POINT ( 'NONE',  ( 1.047444401652939849E-14, -4.336808689942017736E-16, 2.999999999999999556 ) ) ;
#137 = APPROVAL_ROLE ( '' ) ;
#138 = CIRCLE ( 'NONE', #120, 0.5681483474218596008 ) ;
#139 = DIRECTION ( 'NONE',  ( 0.0000000000000000000, -1.000000000000000000, 0.0000000000000000000 ) ) ;
#140 = DIRECTION ( 'NONE',  ( 0.0000000000000000000, 1.000000000000000000, 0.0000000000000000000 ) ) ;
#141 = AXIS2_PLACEMENT_3D ( 'NONE', #76, #228, #133 ) ;
#142 = EDGE_LOOP ( 'NONE', ( #204 ) ) ;
#143 = CARTESIAN_POINT ( 'NONE',  ( 1.326762908760390423E-13, 8.998558695971051224E-33, 38.00000000000000000 ) ) ;
#144 = CONICAL_SURFACE ( 'NONE', #200, 1.199999999999996403, 0.7853981633974461696 ) ;
#145 = DIRECTION ( 'NONE',  ( -3.491481338843133355E-15, 1.224646799147353207E-16, -1.000000000000000000 ) ) ;
#146 = EDGE_CURVE ( 'NONE', #36, #36, #20, .T. ) ;
#147 = AXIS2_PLACEMENT_3D ( 'NONE', #55, #73, #159 ) ;
#148 = APPROVAL_STATUS ( 'not_yet_approved' ) ;
#149 = VERTEX_POINT ( 'NONE', #17 ) ;
#150 = APPROVAL_STATUS ( 'not_yet_approved' ) ;
#151 = CIRCLE ( 'NONE', #198, 0.4999999999999994449 ) ;
#152 = APPROVAL_ROLE ( '' ) ;
#153 = APPROVAL_PERSON_ORGANIZATION ( #164, #135, #152 ) ;
#154 = EDGE_CURVE ( 'NONE', #3, #3, #163, .T. ) ;
#155 = CARTESIAN_POINT ( 'NONE',  ( 1.047444401652940007E-14, -0.4999999999999997780, 3.000000000000000000 ) ) ;
#156 = DATE_TIME_ROLE ( 'creation_date' ) ;
#157 = VERTEX_POINT ( 'NONE', #173 ) ;
#158 = DIRECTION ( 'NONE',  ( 3.491481338843133355E-15, -1.224646799147353207E-16, 1.000000000000000000 ) ) ;
#159 = DIRECTION ( 'NONE',  ( -4.342276153803203868E-31, -1.000000000000000000, -1.243677319851285338E-16 ) ) ;
#160 = DIRECTION ( 'NONE',  ( 3.491481338843133355E-15, -1.243677319851284845E-16, 1.000000000000000000 ) ) ;
#161 = PRODUCT ( '55964', '55964', '', ( #110 ) ) ;
#162 = ADVANCED_FACE ( 'NONE', ( #33, #106 ), #121, .F. ) ;
#163 = CIRCLE ( 'NONE', #115, 0.4999999999999994449 ) ;
#164 = PERSON_AND_ORGANIZATION ( #181, #179 ) ;
#165 = FACE_OUTER_BOUND ( 'NONE', #230, .T. ) ;
#166 = CALENDAR_DATE ( 2021, 15, 11 ) ;
#167 = CALENDAR_DATE ( 2021, 15, 11 ) ;
#168 = EDGE_CURVE ( 'NONE', #78, #78, #100, .T. ) ;
#169 = VERTEX_POINT ( 'NONE', #242 ) ;
#170 = LOCAL_TIME ( 15, 31, 32.00000000000000000, #1 ) ;
#171 =( NAMED_UNIT ( * ) SI_UNIT ( $, .STERADIAN. ) SOLID_ANGLE_UNIT ( ) );
#172 = EDGE_LOOP ( 'NONE', ( #6 ) ) ;
#173 = CARTESIAN_POINT ( 'NONE',  ( 1.047444401652940007E-14, -0.4999999999999997780, 3.000000000000000000 ) ) ;
#174 = AXIS2_PLACEMENT_3D ( 'NONE', #199, #68, #140 ) ;
#175 = ORIENTED_EDGE ( 'NONE', *, *, #25, .T. ) ;
#176 = PRODUCT_DEFINITION_SHAPE ( 'NONE', 'NONE',  #124 ) ;
#177 = CC_DESIGN_DATE_AND_TIME_ASSIGNMENT ( #69, #88, ( #46 ) ) ;
#178 = DIRECTION ( 'NONE',  ( 0.0000000000000000000, -1.000000000000000000, 0.0000000000000000000 ) ) ;
#179 = ORGANIZATION ( 'UNSPECIFIED', 'UNSPECIFIED', '' ) ;
#180 = FACE_OUTER_BOUND ( 'NONE', #77, .T. ) ;
#181 = PERSON ( 'UNSPECIFIED', 'UNSPECIFIED', 'UNSPECIFIED', ('UNSPECIFIED'), ('UNSPECIFIED'), ('UNSPECIFIED') ) ;
#182 = ORIENTED_EDGE ( 'NONE', *, *, #19, .T. ) ;
#183 = PERSON_AND_ORGANIZATION ( #181, #179 ) ;
#184 = ORIENTED_EDGE ( 'NONE', *, *, #154, .T. ) ;
#185 = LOCAL_TIME ( 15, 31, 32.00000000000000000, #187 ) ;
#186 = VERTEX_POINT ( 'NONE', #92 ) ;
#187 = COORDINATED_UNIVERSAL_TIME_OFFSET ( 1, 0, .AHEAD. ) ;
#188 = EDGE_LOOP ( 'NONE', ( #47 ) ) ;
#189 = APPROVAL ( #56, 'UNSPECIFIED' ) ;
#190 = DIRECTION ( 'NONE',  ( -4.401287919143780654E-31, -1.000000000000000000, -1.243677319851284845E-16 ) ) ;
#191 = CARTESIAN_POINT ( 'NONE',  ( 1.047444401652940007E-14, -3.731031959553855028E-16, 3.000000000000000000 ) ) ;
#192 = PERSON_AND_ORGANIZATION ( #181, #179 ) ;
#193 = LOCAL_TIME ( 15, 31, 32.00000000000000000, #54 ) ;
#194 = FACE_OUTER_BOUND ( 'NONE', #221, .T. ) ;
#195 = APPLICATION_CONTEXT ( 'configuration controlled 3d designs of mechanical parts and assemblies' ) ;
#196 = ADVANCED_FACE ( 'NONE', ( #96 ), #53, .F. ) ;
#197 = FACE_OUTER_BOUND ( 'NONE', #172, .T. ) ;
#198 = AXIS2_PLACEMENT_3D ( 'NONE', #218, #160, #237 ) ;
#199 = CARTESIAN_POINT ( 'NONE',  ( 1.316288464743861212E-13, -4.616918432785521081E-15, 37.69999999999999574 ) ) ;
#200 = AXIS2_PLACEMENT_3D ( 'NONE', #24, #49, #62 ) ;
#201 = ADVANCED_FACE ( 'NONE', ( #206, #165 ), #7, .T. ) ;
#202 = CYLINDRICAL_SURFACE ( 'NONE', #214, 1.499999999999994893 ) ;
#203 = APPROVAL_DATE_TIME ( #18, #189 ) ;
#204 = ORIENTED_EDGE ( 'NONE', *, *, #168, .F. ) ;
#205 = UNCERTAINTY_MEASURE_WITH_UNIT (LENGTH_MEASURE( 1.000000000000000082E-05 ), #5, 'distance_accuracy_value', 'NONE');
#206 = FACE_OUTER_BOUND ( 'NONE', #63, .T. ) ;
#207 = PERSON_AND_ORGANIZATION ( #181, #179 ) ;
#208 = EDGE_LOOP ( 'NONE', ( #14 ) ) ;
#209 = COORDINATED_UNIVERSAL_TIME_OFFSET ( 1, 0, .AHEAD. ) ;
#210 =( NAMED_UNIT ( * ) PLANE_ANGLE_UNIT ( ) SI_UNIT ( $, .RADIAN. ) );
#211 = PERSON_AND_ORGANIZATION_ROLE ( 'creator' ) ;
#212 = DIRECTION ( 'NONE',  ( 3.491481338843133355E-15, -1.243677319851284845E-16, 1.000000000000000000 ) ) ;
#213 = CARTESIAN_POINT ( 'NONE',  ( -8.551680453529350800E-31, 2.999525725151307090E-32, -2.449298628175645296E-16 ) ) ;
#214 = AXIS2_PLACEMENT_3D ( 'NONE', #104, #42, #222 ) ;
#215 = CC_DESIGN_APPROVAL ( #189, ( #124 ) ) ;
#216 = MANIFOLD_SOLID_BREP ( 'Corps-Déplacer/Copier1[2]', #84 ) ;
#217 = ORIENTED_EDGE ( 'NONE', *, *, #146, .F. ) ;
#218 = CARTESIAN_POINT ( 'NONE',  ( 1.047444401652940007E-14, -3.731031959553855028E-16, 3.000000000000000000 ) ) ;
#219 = APPROVAL ( #148, 'UNSPECIFIED' ) ;
#220 = AXIS2_PLACEMENT_3D ( 'NONE', #122, #83, #23 ) ;
#221 = EDGE_LOOP ( 'NONE', ( #126 ) ) ;
#222 = DIRECTION ( 'NONE',  ( 4.275831445896958607E-31, 1.000000000000000000, 1.224646799147353207E-16 ) ) ;
#223 = CC_DESIGN_PERSON_AND_ORGANIZATION_ASSIGNMENT ( #192, #34, ( #46 ) ) ;
#224 = FACE_OUTER_BOUND ( 'NONE', #142, .T. ) ;
#225 = DATE_AND_TIME ( #167, #66 ) ;
#226 = EDGE_LOOP ( 'NONE', ( #217 ) ) ;
#227 = CALENDAR_DATE ( 2021, 15, 11 ) ;
#228 = DIRECTION ( 'NONE',  ( 0.0000000000000000000, 0.0000000000000000000, 1.000000000000000000 ) ) ;
#229 = SECURITY_CLASSIFICATION_LEVEL ( 'unclassified' ) ;
#230 = EDGE_LOOP ( 'NONE', ( #71 ) ) ;
#231 = PERSON_AND_ORGANIZATION ( #181, #179 ) ;
#232 = APPLICATION_CONTEXT ( 'configuration controlled 3d designs of mechanical parts and assemblies' ) ;
#233 = DIRECTION ( 'NONE',  ( -4.275831445896958607E-31, -1.000000000000000000, -1.224646799147353207E-16 ) ) ;
#234 = DIRECTION ( 'NONE',  ( -4.275831445896958607E-31, -1.000000000000000000, -1.224646799147353207E-16 ) ) ;
#235 = CONICAL_SURFACE ( 'NONE', #51, 2.499999999999995559, 0.2617993877991428575 ) ;
#236 = CC_DESIGN_PERSON_AND_ORGANIZATION_ASSIGNMENT ( #8, #105, ( #161 ) ) ;
#237 = DIRECTION ( 'NONE',  ( 0.0000000000000000000, -1.000000000000000000, 0.0000000000000000000 ) ) ;
#238 = APPROVAL_PERSON_ORGANIZATION ( #128, #189, #137 ) ;
#239 = CC_DESIGN_PERSON_AND_ORGANIZATION_ASSIGNMENT ( #207, #74, ( #85 ) ) ;
#240 =( GEOMETRIC_REPRESENTATION_CONTEXT ( 3 ) GLOBAL_UNCERTAINTY_ASSIGNED_CONTEXT ( ( #205 ) ) GLOBAL_UNIT_ASSIGNED_CONTEXT ( ( #5, #210, #171 ) ) REPRESENTATION_CONTEXT ( 'NONE', 'WORKASPACE' ) );
#241 = DATE_AND_TIME ( #227, #193 ) ;
#242 = CARTESIAN_POINT ( 'NONE',  ( 1.228176774875465645E-14, -0.5681483474218600449, 3.517638090205028600 ) ) ;
#243 = CALENDAR_DATE ( 2021, 15, 11 ) ;
ENDSEC;
END-ISO-10303-21;
