ISO-10303-21;
HEADER;
FILE_DESCRIPTION (( 'STEP AP203' ),
    '1' );
FILE_NAME ('55950.step',
    '2021-11-01T09:45:36',
    ( '' ),
    ( '' ),
    'SwSTEP 2.0',
    'SolidWorks 2019',
    '' );
FILE_SCHEMA (( 'CONFIG_CONTROL_DESIGN' ));
ENDSEC;

DATA;
#1 = CIRCLE ( 'NONE', #146, 0.5681483474218598229 ) ;
#2 = LOCAL_TIME ( 10, 45, 36.00000000000000000, #48 ) ;
#3 = CARTESIAN_POINT ( 'NONE',  ( 1.316288464743861212E-13, -4.616918432785521081E-15, 37.69999999999999574 ) ) ;
#4 = DIRECTION ( 'NONE',  ( 3.491481338843133355E-15, -1.219242935835426903E-16, 1.000000000000000000 ) ) ;
#5 = CARTESIAN_POINT ( 'NONE',  ( 0.0000000000000000000, 0.0000000000000000000, 0.0000000000000000000 ) ) ;
#6 = ADVANCED_BREP_SHAPE_REPRESENTATION ( '55950', ( #114, #117, #124 ), #142 ) ;
#7 = DIRECTION ( 'NONE',  ( -4.275831445896958607E-31, -1.000000000000000000, -1.224646799147353207E-16 ) ) ;
#8 = DIRECTION ( 'NONE',  ( 3.491481338843133355E-15, -1.224646799147353207E-16, 1.000000000000000000 ) ) ;
#9 = AXIS2_PLACEMENT_3D ( 'NONE', #214, #41, #192 ) ;
#10 = DATE_AND_TIME ( #63, #90 ) ;
#11 = CC_DESIGN_PERSON_AND_ORGANIZATION_ASSIGNMENT ( #72, #51, ( #197 ) ) ;
#12 = PLANE ( 'NONE',  #175 ) ;
#13 = APPLICATION_PROTOCOL_DEFINITION ( 'international standard', 'config_control_design', 1994, #140 ) ;
#14 = EDGE_LOOP ( 'NONE', ( #94 ) ) ;
#15 = ADVANCED_FACE ( 'NONE', ( #95, #201 ), #231, .F. ) ;
#16 = CARTESIAN_POINT ( 'NONE',  ( 1.745740669421566362E-14, -4.336808689942017736E-16, 4.999999999999999112 ) ) ;
#17 = CIRCLE ( 'NONE', #206, 0.5000000000000002220 ) ;
#18 = DIRECTION ( 'NONE',  ( 0.0000000000000000000, -1.000000000000000000, 0.0000000000000000000 ) ) ;
#19 = CARTESIAN_POINT ( 'NONE',  ( -6.413803915257455362E-31, 2.249659577954771652E-32, -1.836986451539392583E-16 ) ) ;
#20 = DIRECTION ( 'NONE',  ( -4.256963957985707137E-31, -1.000000000000000000, -1.219242935835425917E-16 ) ) ;
#21 = AXIS2_PLACEMENT_3D ( 'NONE', #112, #86, #20 ) ;
#22 = APPROVAL_PERSON_ORGANIZATION ( #163, #136, #228 ) ;
#23 = FACE_OUTER_BOUND ( 'NONE', #166, .T. ) ;
#24 = CARTESIAN_POINT ( 'NONE',  ( 1.745740669421566362E-14, -0.5000000000000008882, 4.999999999999999112 ) ) ;
#25 = CC_DESIGN_PERSON_AND_ORGANIZATION_ASSIGNMENT ( #58, #131, ( #197 ) ) ;
#26 =( NAMED_UNIT ( * ) SI_UNIT ( $, .STERADIAN. ) SOLID_ANGLE_UNIT ( ) );
#27 = PRODUCT ( '55950', '55950', '', ( #161 ) ) ;
#28 = VERTEX_POINT ( 'NONE', #238 ) ;
#29 = COORDINATED_UNIVERSAL_TIME_OFFSET ( 1, 0, .AHEAD. ) ;
#30 = DESIGN_CONTEXT ( 'detailed design', #140, 'design' ) ;
#31 = ORIENTED_EDGE ( 'NONE', *, *, #105, .F. ) ;
#32 = SECURITY_CLASSIFICATION_LEVEL ( 'unclassified' ) ;
#33 = EDGE_LOOP ( 'NONE', ( #55 ) ) ;
#34 = CC_DESIGN_PERSON_AND_ORGANIZATION_ASSIGNMENT ( #210, #106, ( #149 ) ) ;
#35 = EDGE_LOOP ( 'NONE', ( #243 ) ) ;
#36 = CC_DESIGN_PERSON_AND_ORGANIZATION_ASSIGNMENT ( #102, #147, ( #71 ) ) ;
#37 = CARTESIAN_POINT ( 'NONE',  ( 1.326762908760390423E-13, -4.653657836759941941E-15, 38.00000000000000000 ) ) ;
#38 = APPROVAL_STATUS ( 'not_yet_approved' ) ;
#39 = CYLINDRICAL_SURFACE ( 'NONE', #54, 1.499999999999995781 ) ;
#40 = CONICAL_SURFACE ( 'NONE', #186, 1.199999999999997957, 0.7853981633974450594 ) ;
#41 = DIRECTION ( 'NONE',  ( 3.491481338843133355E-15, -1.219242935835426903E-16, 1.000000000000000000 ) ) ;
#42 = DIRECTION ( 'NONE',  ( -4.275831445896958607E-31, -1.000000000000000000, -1.224646799147353207E-16 ) ) ;
#43 = DIRECTION ( 'NONE',  ( 0.0000000000000000000, -1.000000000000000000, 0.0000000000000000000 ) ) ;
#44 = CALENDAR_DATE ( 2021, 1, 11 ) ;
#45 = VERTEX_POINT ( 'NONE', #220 ) ;
#46 = ADVANCED_FACE ( 'NONE', ( #81, #233 ), #40, .T. ) ;
#47 = EDGE_LOOP ( 'NONE', ( #31 ) ) ;
#48 = COORDINATED_UNIVERSAL_TIME_OFFSET ( 1, 0, .AHEAD. ) ;
#49 = AXIS2_PLACEMENT_3D ( 'NONE', #3, #156, #85 ) ;
#50 = LOCAL_TIME ( 10, 45, 36.00000000000000000, #97 ) ;
#51 = PERSON_AND_ORGANIZATION_ROLE ( 'design_supplier' ) ;
#52 = EDGE_CURVE ( 'NONE', #195, #195, #17, .T. ) ;
#53 = EDGE_LOOP ( 'NONE', ( #222 ) ) ;
#54 = AXIS2_PLACEMENT_3D ( 'NONE', #226, #144, #169 ) ;
#55 = ORIENTED_EDGE ( 'NONE', *, *, #148, .T. ) ;
#56 = ADVANCED_FACE ( 'NONE', ( #115, #109 ), #216, .T. ) ;
#57 = DIRECTION ( 'NONE',  ( -4.275831445896958607E-31, -1.000000000000000000, -1.224646799147353207E-16 ) ) ;
#58 = PERSON_AND_ORGANIZATION ( #79, #171 ) ;
#59 = PLANE ( 'NONE',  #119 ) ;
#60 = CARTESIAN_POINT ( 'NONE',  ( 1.745740669421566362E-14, -6.096214679177133527E-16, 4.999999999999999112 ) ) ;
#61 = DIRECTION ( 'NONE',  ( 3.491481338843133355E-15, -1.219242935835426903E-16, 1.000000000000000000 ) ) ;
#62 = DIRECTION ( 'NONE',  ( -4.256963957985708889E-31, -1.000000000000000000, -1.219242935835426903E-16 ) ) ;
#63 = CALENDAR_DATE ( 2021, 1, 11 ) ;
#64 = AXIS2_PLACEMENT_3D ( 'NONE', #19, #172, #7 ) ;
#65 = ADVANCED_FACE ( 'NONE', ( #96, #98 ), #39, .T. ) ;
#66 = APPROVAL_DATE_TIME ( #10, #190 ) ;
#67 = CARTESIAN_POINT ( 'NONE',  ( 0.0000000000000000000, 0.0000000000000000000, 0.0000000000000000000 ) ) ;
#68 = EDGE_CURVE ( 'NONE', #45, #45, #235, .T. ) ;
#69 = AXIS2_PLACEMENT_3D ( 'NONE', #16, #209, #185 ) ;
#70 = VERTEX_POINT ( 'NONE', #125 ) ;
#71 = PRODUCT_DEFINITION ( 'UNKNOWN', '', #197, #30 ) ;
#72 = PERSON_AND_ORGANIZATION ( #79, #171 ) ;
#73 = AXIS2_PLACEMENT_3D ( 'NONE', #173, #8, #57 ) ;
#74 = ORIENTED_EDGE ( 'NONE', *, *, #123, .F. ) ;
#75 = CC_DESIGN_PERSON_AND_ORGANIZATION_ASSIGNMENT ( #122, #177, ( #27 ) ) ;
#76 = ORIENTED_EDGE ( 'NONE', *, *, #148, .F. ) ;
#77 = EDGE_LOOP ( 'NONE', ( #135 ) ) ;
#78 = CC_DESIGN_SECURITY_CLASSIFICATION ( #149, ( #197 ) ) ;
#79 = PERSON ( 'UNSPECIFIED', 'UNSPECIFIED', 'UNSPECIFIED', ('UNSPECIFIED'), ('UNSPECIFIED'), ('UNSPECIFIED') ) ;
#80 = APPROVAL_DATE_TIME ( #139, #153 ) ;
#81 = FACE_OUTER_BOUND ( 'NONE', #47, .T. ) ;
#82 = DIRECTION ( 'NONE',  ( 0.0000000000000000000, 1.000000000000000000, 0.0000000000000000000 ) ) ;
#83 = EDGE_CURVE ( 'NONE', #174, #174, #89, .T. ) ;
#84 = DIRECTION ( 'NONE',  ( 0.0000000000000000000, -1.000000000000000000, 0.0000000000000000000 ) ) ;
#85 = DIRECTION ( 'NONE',  ( 0.0000000000000000000, 1.000000000000000000, 0.0000000000000000000 ) ) ;
#86 = DIRECTION ( 'NONE',  ( 3.491481338843133355E-15, -1.219242935835426903E-16, 1.000000000000000000 ) ) ;
#87 = DATE_TIME_ROLE ( 'creation_date' ) ;
#88 = DIRECTION ( 'NONE',  ( 1.000000000000000000, 0.0000000000000000000, 0.0000000000000000000 ) ) ;
#89 = CIRCLE ( 'NONE', #224, 1.199999999999997957 ) ;
#90 = LOCAL_TIME ( 10, 45, 36.00000000000000000, #234 ) ;
#91 = SHAPE_DEFINITION_REPRESENTATION ( #92, #6 ) ;
#92 = PRODUCT_DEFINITION_SHAPE ( 'NONE', 'NONE',  #71 ) ;
#93 = ORIENTED_EDGE ( 'NONE', *, *, #105, .T. ) ;
#94 = ORIENTED_EDGE ( 'NONE', *, *, #52, .T. ) ;
#95 = FACE_OUTER_BOUND ( 'NONE', #14, .T. ) ;
#96 = FACE_OUTER_BOUND ( 'NONE', #129, .T. ) ;
#97 = COORDINATED_UNIVERSAL_TIME_OFFSET ( 1, 0, .AHEAD. ) ;
#98 = FACE_OUTER_BOUND ( 'NONE', #167, .T. ) ;
#99 = DIRECTION ( 'NONE',  ( 3.491481338843133355E-15, -1.219242935835426903E-16, 1.000000000000000000 ) ) ;
#100 = DIRECTION ( 'NONE',  ( 0.0000000000000000000, 1.000000000000000000, 0.0000000000000000000 ) ) ;
#101 = DIRECTION ( 'NONE',  ( 0.0000000000000000000, -1.000000000000000000, 0.0000000000000000000 ) ) ;
#102 = PERSON_AND_ORGANIZATION ( #79, #171 ) ;
#103 = DIRECTION ( 'NONE',  ( 0.0000000000000000000, 0.0000000000000000000, 1.000000000000000000 ) ) ;
#104 = AXIS2_PLACEMENT_3D ( 'NONE', #188, #189, #43 ) ;
#105 = EDGE_CURVE ( 'NONE', #240, #240, #155, .T. ) ;
#106 = PERSON_AND_ORGANIZATION_ROLE ( 'classification_officer' ) ;
#107 = ORIENTED_EDGE ( 'NONE', *, *, #83, .F. ) ;
#108 = ORIENTED_EDGE ( 'NONE', *, *, #68, .F. ) ;
#109 = FACE_OUTER_BOUND ( 'NONE', #223, .T. ) ;
#110 = CIRCLE ( 'NONE', #9, 0.5000000000000002220 ) ;
#111 = ADVANCED_FACE ( 'NONE', ( #157 ), #59, .F. ) ;
#112 = CARTESIAN_POINT ( 'NONE',  ( -2.136983697835317461E-30, 7.462455114952685767E-32, -6.120564569717519923E-16 ) ) ;
#113 = FACE_OUTER_BOUND ( 'NONE', #35, .T. ) ;
#114 = MANIFOLD_SOLID_BREP ( 'Corps-Déplacer/Copier1[1]', #137 ) ;
#115 = FACE_OUTER_BOUND ( 'NONE', #53, .T. ) ;
#116 = ADVANCED_FACE ( 'NONE', ( #23 ), #141, .F. ) ;
#117 = MANIFOLD_SOLID_BREP ( 'Corps-Déplacer/Copier1[2]', #165 ) ;
#118 = CARTESIAN_POINT ( 'NONE',  ( 1.926473042644091211E-14, -6.727341263978953806E-16, 5.517638090205025492 ) ) ;
#119 = AXIS2_PLACEMENT_3D ( 'NONE', #159, #232, #42 ) ;
#120 =( NAMED_UNIT ( * ) PLANE_ANGLE_UNIT ( ) SI_UNIT ( $, .RADIAN. ) );
#121 = DIRECTION ( 'NONE',  ( -3.491481338843133355E-15, 1.224646799147353207E-16, -1.000000000000000000 ) ) ;
#122 = PERSON_AND_ORGANIZATION ( #79, #171 ) ;
#123 = EDGE_CURVE ( 'NONE', #28, #28, #217, .T. ) ;
#124 = AXIS2_PLACEMENT_3D ( 'NONE', #67, #103, #88 ) ;
#125 = CARTESIAN_POINT ( 'NONE',  ( 1.926473042644091211E-14, -0.5681483474218604890, 5.517638090205025492 ) ) ;
#126 = CARTESIAN_POINT ( 'NONE',  ( 1.326762908760390423E-13, 8.998558695971062171E-33, 38.00000000000000000 ) ) ;
#127 = CC_DESIGN_DATE_AND_TIME_ASSIGNMENT ( #176, #87, ( #71 ) ) ;
#128 = DATE_TIME_ROLE ( 'classification_date' ) ;
#129 = EDGE_LOOP ( 'NONE', ( #93 ) ) ;
#130 = CONICAL_SURFACE ( 'NONE', #162, 2.499999999999996891, 0.2617993877991429130 ) ;
#131 = PERSON_AND_ORGANIZATION_ROLE ( 'creator' ) ;
#132 = EDGE_LOOP ( 'NONE', ( #134 ) ) ;
#133 = CALENDAR_DATE ( 2021, 1, 11 ) ;
#134 = ORIENTED_EDGE ( 'NONE', *, *, #83, .T. ) ;
#135 = ORIENTED_EDGE ( 'NONE', *, *, #123, .T. ) ;
#136 = APPROVAL ( #180, 'UNSPECIFIED' ) ;
#137 = CLOSED_SHELL ( 'NONE', ( #65, #46, #241, #179, #15, #111 ) ) ;
#138 = FACE_OUTER_BOUND ( 'NONE', #205, .T. ) ;
#139 = DATE_AND_TIME ( #200, #187 ) ;
#140 = APPLICATION_CONTEXT ( 'configuration controlled 3d designs of mechanical parts and assemblies' ) ;
#141 = PLANE ( 'NONE',  #64 ) ;
#142 =( GEOMETRIC_REPRESENTATION_CONTEXT ( 3 ) GLOBAL_UNCERTAINTY_ASSIGNED_CONTEXT ( ( #242 ) ) GLOBAL_UNIT_ASSIGNED_CONTEXT ( ( #198, #120, #26 ) ) REPRESENTATION_CONTEXT ( 'NONE', 'WORKASPACE' ) );
#143 = DIRECTION ( 'NONE',  ( 3.491481338843133355E-15, -1.219242935835426903E-16, 1.000000000000000000 ) ) ;
#144 = DIRECTION ( 'NONE',  ( -3.491481338843133355E-15, 1.224646799147353207E-16, -1.000000000000000000 ) ) ;
#145 = COORDINATED_UNIVERSAL_TIME_OFFSET ( 1, 0, .AHEAD. ) ;
#146 = AXIS2_PLACEMENT_3D ( 'NONE', #118, #99, #101 ) ;
#147 = PERSON_AND_ORGANIZATION_ROLE ( 'creator' ) ;
#148 = EDGE_CURVE ( 'NONE', #70, #70, #1, .T. ) ;
#149 = SECURITY_CLASSIFICATION ( '', '', #32 ) ;
#150 = CARTESIAN_POINT ( 'NONE',  ( 1.745740669421566362E-14, -0.5000000000000008882, 4.999999999999999112 ) ) ;
#151 = APPLICATION_CONTEXT ( 'configuration controlled 3d designs of mechanical parts and assemblies' ) ;
#152 = APPROVAL_DATE_TIME ( #204, #136 ) ;
#153 = APPROVAL ( #38, 'UNSPECIFIED' ) ;
#154 = EDGE_LOOP ( 'NONE', ( #184 ) ) ;
#155 = CIRCLE ( 'NONE', #49, 1.499999999999997558 ) ;
#156 = DIRECTION ( 'NONE',  ( -3.491481338843133355E-15, 1.224646799147353207E-16, -1.000000000000000000 ) ) ;
#157 = FACE_OUTER_BOUND ( 'NONE', #154, .T. ) ;
#158 = PLANE ( 'NONE',  #73 ) ;
#159 = CARTESIAN_POINT ( 'NONE',  ( 1.745740669421566362E-14, 1.124819836996387869E-32, 4.999999999999999112 ) ) ;
#160 = APPROVAL_ROLE ( '' ) ;
#161 = MECHANICAL_CONTEXT ( 'NONE', #151, 'mechanical' ) ;
#162 = AXIS2_PLACEMENT_3D ( 'NONE', #230, #143, #84 ) ;
#163 = PERSON_AND_ORGANIZATION ( #79, #171 ) ;
#164 = DATE_AND_TIME ( #221, #50 ) ;
#165 = CLOSED_SHELL ( 'NONE', ( #229, #56, #116 ) ) ;
#166 = EDGE_LOOP ( 'NONE', ( #108 ) ) ;
#167 = EDGE_LOOP ( 'NONE', ( #74 ) ) ;
#168 = CARTESIAN_POINT ( 'NONE',  ( 1.326762908760390423E-13, -4.653657836759941941E-15, 38.00000000000000000 ) ) ;
#169 = DIRECTION ( 'NONE',  ( 4.275831445896958607E-31, 1.000000000000000000, 1.224646799147353207E-16 ) ) ;
#170 = FACE_BOUND ( 'NONE', #33, .T. ) ;
#171 = ORGANIZATION ( 'UNSPECIFIED', 'UNSPECIFIED', '' ) ;
#172 = DIRECTION ( 'NONE',  ( 3.491481338843133355E-15, -1.224646799147353207E-16, 1.000000000000000000 ) ) ;
#173 = CARTESIAN_POINT ( 'NONE',  ( 1.745740669421566362E-14, 1.124819836996387869E-32, 4.999999999999999112 ) ) ;
#174 = VERTEX_POINT ( 'NONE', #199 ) ;
#175 = AXIS2_PLACEMENT_3D ( 'NONE', #126, #121, #196 ) ;
#176 = DATE_AND_TIME ( #44, #236 ) ;
#177 = PERSON_AND_ORGANIZATION_ROLE ( 'design_owner' ) ;
#178 = APPROVAL_PERSON_ORGANIZATION ( #227, #153, #202 ) ;
#179 = ADVANCED_FACE ( 'NONE', ( #170, #211 ), #130, .T. ) ;
#180 = APPROVAL_STATUS ( 'not_yet_approved' ) ;
#181 = AXIS2_PLACEMENT_3D ( 'NONE', #5, #61, #62 ) ;
#182 = APPROVAL_PERSON_ORGANIZATION ( #237, #190, #160 ) ;
#183 = EDGE_CURVE ( 'NONE', #218, #218, #110, .T. ) ;
#184 = ORIENTED_EDGE ( 'NONE', *, *, #52, .F. ) ;
#185 = DIRECTION ( 'NONE',  ( -4.374987488666862460E-31, -1.000000000000000000, -1.219242935835426903E-16 ) ) ;
#186 = AXIS2_PLACEMENT_3D ( 'NONE', #168, #191, #82 ) ;
#187 = LOCAL_TIME ( 10, 45, 36.00000000000000000, #29 ) ;
#188 = CARTESIAN_POINT ( 'NONE',  ( 3.140711692153406033E-14, -1.096752401782152240E-15, 8.995355802743741691 ) ) ;
#189 = DIRECTION ( 'NONE',  ( -3.491481338843133355E-15, 1.219242935835426903E-16, -1.000000000000000000 ) ) ;
#190 = APPROVAL ( #239, 'UNSPECIFIED' ) ;
#191 = DIRECTION ( 'NONE',  ( -3.491481338843133355E-15, 1.224646799147353207E-16, -1.000000000000000000 ) ) ;
#192 = DIRECTION ( 'NONE',  ( 0.0000000000000000000, -1.000000000000000000, 0.0000000000000000000 ) ) ;
#193 = CC_DESIGN_DATE_AND_TIME_ASSIGNMENT ( #164, #128, ( #149 ) ) ;
#194 = CARTESIAN_POINT ( 'NONE',  ( 1.316288464743861212E-13, 1.499999999999993117, 37.69999999999999574 ) ) ;
#195 = VERTEX_POINT ( 'NONE', #150 ) ;
#196 = DIRECTION ( 'NONE',  ( 4.275831445896958607E-31, 1.000000000000000000, 1.224646799147353207E-16 ) ) ;
#197 = PRODUCT_DEFINITION_FORMATION_WITH_SPECIFIED_SOURCE ( 'ANY', '', #27, .NOT_KNOWN. ) ;
#198 =( LENGTH_UNIT ( ) NAMED_UNIT ( * ) SI_UNIT ( .MILLI., .METRE. ) );
#199 = CARTESIAN_POINT ( 'NONE',  ( 1.326762908760390423E-13, 1.199999999999993294, 38.00000000000000000 ) ) ;
#200 = CALENDAR_DATE ( 2021, 1, 11 ) ;
#201 = FACE_OUTER_BOUND ( 'NONE', #203, .T. ) ;
#202 = APPROVAL_ROLE ( '' ) ;
#203 = EDGE_LOOP ( 'NONE', ( #76 ) ) ;
#204 = DATE_AND_TIME ( #133, #2 ) ;
#205 = EDGE_LOOP ( 'NONE', ( #107 ) ) ;
#206 = AXIS2_PLACEMENT_3D ( 'NONE', #60, #4, #18 ) ;
#207 = CC_DESIGN_APPROVAL ( #190, ( #71 ) ) ;
#208 = ORIENTED_EDGE ( 'NONE', *, *, #183, .F. ) ;
#209 = DIRECTION ( 'NONE',  ( 3.491481338843133355E-15, -1.219242935835426903E-16, 1.000000000000000000 ) ) ;
#210 = PERSON_AND_ORGANIZATION ( #79, #171 ) ;
#211 = FACE_OUTER_BOUND ( 'NONE', #77, .T. ) ;
#212 = CC_DESIGN_APPROVAL ( #153, ( #149 ) ) ;
#213 = PRODUCT_RELATED_PRODUCT_CATEGORY ( 'detail', '', ( #27 ) ) ;
#214 = CARTESIAN_POINT ( 'NONE',  ( 1.745740669421566362E-14, -6.096214679177133527E-16, 4.999999999999999112 ) ) ;
#215 = DIRECTION ( 'NONE',  ( -3.491481338843133355E-15, 1.224646799147353207E-16, -1.000000000000000000 ) ) ;
#216 = CYLINDRICAL_SURFACE ( 'NONE', #181, 0.5000000000000000000 ) ;
#217 = CIRCLE ( 'NONE', #104, 1.499999999999995781 ) ;
#218 = VERTEX_POINT ( 'NONE', #24 ) ;
#219 = APPLICATION_PROTOCOL_DEFINITION ( 'international standard', 'config_control_design', 1994, #151 ) ;
#220 = CARTESIAN_POINT ( 'NONE',  ( -2.349831895734602774E-30, -0.4999999999999997780, -6.730186037635233375E-16 ) ) ;
#221 = CALENDAR_DATE ( 2021, 1, 11 ) ;
#222 = ORIENTED_EDGE ( 'NONE', *, *, #68, .T. ) ;
#223 = EDGE_LOOP ( 'NONE', ( #208 ) ) ;
#224 = AXIS2_PLACEMENT_3D ( 'NONE', #37, #215, #100 ) ;
#225 = CC_DESIGN_APPROVAL ( #136, ( #197 ) ) ;
#226 = CARTESIAN_POINT ( 'NONE',  ( 0.0000000000000000000, 0.0000000000000000000, 0.0000000000000000000 ) ) ;
#227 = PERSON_AND_ORGANIZATION ( #79, #171 ) ;
#228 = APPROVAL_ROLE ( '' ) ;
#229 = ADVANCED_FACE ( 'NONE', ( #113 ), #158, .T. ) ;
#230 = CARTESIAN_POINT ( 'NONE',  ( 4.443750267177560075E-14, -1.551780060112890071E-15, 12.72740661031272147 ) ) ;
#231 = TOROIDAL_SURFACE ( 'NONE', #69, 2.500000000000000000, 2.000000000000000000 ) ;
#232 = DIRECTION ( 'NONE',  ( 3.491481338843133355E-15, -1.224646799147353207E-16, 1.000000000000000000 ) ) ;
#233 = FACE_BOUND ( 'NONE', #132, .T. ) ;
#234 = COORDINATED_UNIVERSAL_TIME_OFFSET ( 1, 0, .AHEAD. ) ;
#235 = CIRCLE ( 'NONE', #21, 0.4999999999999997780 ) ;
#236 = LOCAL_TIME ( 10, 45, 36.00000000000000000, #145 ) ;
#237 = PERSON_AND_ORGANIZATION ( #79, #171 ) ;
#238 = CARTESIAN_POINT ( 'NONE',  ( 3.140711692153406033E-14, -1.499999999999996669, 8.995355802743741691 ) ) ;
#239 = APPROVAL_STATUS ( 'not_yet_approved' ) ;
#240 = VERTEX_POINT ( 'NONE', #194 ) ;
#241 = ADVANCED_FACE ( 'NONE', ( #138 ), #12, .F. ) ;
#242 = UNCERTAINTY_MEASURE_WITH_UNIT (LENGTH_MEASURE( 1.000000000000000082E-05 ), #198, 'distance_accuracy_value', 'NONE');
#243 = ORIENTED_EDGE ( 'NONE', *, *, #183, .T. ) ;
ENDSEC;
END-ISO-10303-21;
