ISO-10303-21;
HEADER;
FILE_DESCRIPTION (( 'STEP AP203' ),
    '1' );
FILE_NAME ('55799.step',
    '2021-10-08T08:12:03',
    ( '' ),
    ( '' ),
    'SwSTEP 2.0',
    'SolidWorks 2019',
    '' );
FILE_SCHEMA (( 'CONFIG_CONTROL_DESIGN' ));
ENDSEC;

DATA;
#1 = PRODUCT_RELATED_PRODUCT_CATEGORY ( 'detail', '', ( #38 ) ) ;
#2 = ORIENTED_EDGE ( 'NONE', *, *, #28, .T. ) ;
#3 = PERSON_AND_ORGANIZATION ( #169, #196 ) ;
#4 = LOCAL_TIME ( 10, 12, 3.000000000000000000, #140 ) ;
#5 = EDGE_LOOP ( 'NONE', ( #200 ) ) ;
#6 = PRODUCT_DEFINITION ( 'UNKNOWN', '', #59, #25 ) ;
#7 = AXIS2_PLACEMENT_3D ( 'NONE', #62, #91, #17 ) ;
#8 = CC_DESIGN_PERSON_AND_ORGANIZATION_ASSIGNMENT ( #173, #88, ( #59 ) ) ;
#9 = UNCERTAINTY_MEASURE_WITH_UNIT (LENGTH_MEASURE( 1.000000000000000082E-05 ), #127, 'distance_accuracy_value', 'NONE');
#10 = APPROVAL ( #70, 'UNSPECIFIED' ) ;
#11 = SECURITY_CLASSIFICATION_LEVEL ( 'unclassified' ) ;
#12 = CARTESIAN_POINT ( 'NONE',  ( 4.189777606611760026E-14, 0.9749999999999993117, 12.00000000000000000 ) ) ;
#13 = ADVANCED_BREP_SHAPE_REPRESENTATION ( '55799', ( #80, #81, #14 ), #67 ) ;
#14 = AXIS2_PLACEMENT_3D ( 'NONE', #110, #183, #95 ) ;
#15 = CARTESIAN_POINT ( 'NONE',  ( 4.189777606611760026E-14, -1.469576158976823947E-15, 12.00000000000000000 ) ) ;
#16 = PERSON_AND_ORGANIZATION ( #169, #196 ) ;
#17 = DIRECTION ( 'NONE',  ( 0.0000000000000000000, 1.000000000000000000, 0.0000000000000000000 ) ) ;
#18 = FACE_BOUND ( 'NONE', #5, .T. ) ;
#19 = PERSON_AND_ORGANIZATION ( #169, #196 ) ;
#20 = CIRCLE ( 'NONE', #207, 0.9750000000000008660 ) ;
#21 = CYLINDRICAL_SURFACE ( 'NONE', #214, 0.9999999999999988898 ) ;
#22 = DIRECTION ( 'NONE',  ( 3.491481338843133355E-15, -1.224646799147353207E-16, 1.000000000000000000 ) ) ;
#23 = DIRECTION ( 'NONE',  ( -3.491481338843133355E-15, 1.224646799147353207E-16, -1.000000000000000000 ) ) ;
#24 = AXIS2_PLACEMENT_3D ( 'NONE', #71, #141, #41 ) ;
#25 = DESIGN_CONTEXT ( 'detailed design', #175, 'design' ) ;
#26 = PERSON_AND_ORGANIZATION_ROLE ( 'creator' ) ;
#27 = DATE_AND_TIME ( #176, #189 ) ;
#28 = EDGE_CURVE ( 'NONE', #223, #223, #120, .T. ) ;
#29 = APPROVAL_DATE_TIME ( #27, #111 ) ;
#30 = CARTESIAN_POINT ( 'NONE',  ( 1.326762908760390423E-13, 5.999039130647367482E-33, 38.00000000000000000 ) ) ;
#31 = DIRECTION ( 'NONE',  ( -3.491481338843133355E-15, 1.224646799147353207E-16, -1.000000000000000000 ) ) ;
#32 = VERTEX_POINT ( 'NONE', #12 ) ;
#33 = ADVANCED_FACE ( 'NONE', ( #171, #191 ), #35, .T. ) ;
#34 = DIRECTION ( 'NONE',  ( 4.275831445896958607E-31, 1.000000000000000000, 1.224646799147353207E-16 ) ) ;
#35 = CONICAL_SURFACE ( 'NONE', #82, 0.9999999999999970024, 0.5235987755982789427 ) ;
#36 = ORIENTED_EDGE ( 'NONE', *, *, #121, .F. ) ;
#37 = LOCAL_TIME ( 10, 12, 3.000000000000000000, #99 ) ;
#38 = PRODUCT ( '55799', '55799', '', ( #168 ) ) ;
#39 = EDGE_CURVE ( 'NONE', #162, #162, #190, .T. ) ;
#40 = CONICAL_SURFACE ( 'NONE', #45, 0.8000000000000009326, 0.7853981633974512766 ) ;
#41 = DIRECTION ( 'NONE',  ( 4.275831445896958607E-31, 1.000000000000000000, 1.224646799147353207E-16 ) ) ;
#42 = CARTESIAN_POINT ( 'NONE',  ( 4.189777606611760026E-14, 7.311328940476539417E-33, 12.00000000000000000 ) ) ;
#43 = FACE_OUTER_BOUND ( 'NONE', #185, .T. ) ;
#44 = EDGE_LOOP ( 'NONE', ( #94 ) ) ;
#45 = AXIS2_PLACEMENT_3D ( 'NONE', #147, #166, #222 ) ;
#46 = FACE_OUTER_BOUND ( 'NONE', #51, .T. ) ;
#47 = VERTEX_POINT ( 'NONE', #113 ) ;
#48 = CC_DESIGN_PERSON_AND_ORGANIZATION_ASSIGNMENT ( #195, #72, ( #52 ) ) ;
#49 = FACE_OUTER_BOUND ( 'NONE', #161, .T. ) ;
#50 = DIRECTION ( 'NONE',  ( -4.275831445896958607E-31, -1.000000000000000000, -1.224646799147353207E-16 ) ) ;
#51 = EDGE_LOOP ( 'NONE', ( #2 ) ) ;
#52 = SECURITY_CLASSIFICATION ( '', '', #11 ) ;
#53 = APPROVAL_ROLE ( '' ) ;
#54 = ADVANCED_FACE ( 'NONE', ( #49, #96 ), #21, .T. ) ;
#55 = APPROVAL_ROLE ( '' ) ;
#56 = AXIS2_PLACEMENT_3D ( 'NONE', #15, #164, #131 ) ;
#57 = CARTESIAN_POINT ( 'NONE',  ( 0.0000000000000000000, 0.0000000000000000000, 0.0000000000000000000 ) ) ;
#58 = APPROVAL_PERSON_ORGANIZATION ( #105, #111, #84 ) ;
#59 = PRODUCT_DEFINITION_FORMATION_WITH_SPECIFIED_SOURCE ( 'ANY', '', #38, .NOT_KNOWN. ) ;
#60 = DIRECTION ( 'NONE',  ( -4.275831445896958607E-31, -1.000000000000000000, -1.224646799147353207E-16 ) ) ;
#61 = CC_DESIGN_DATE_AND_TIME_ASSIGNMENT ( #213, #137, ( #52 ) ) ;
#62 = CARTESIAN_POINT ( 'NONE',  ( 4.204896164293145655E-14, -1.474879035170447788E-15, 12.04330127018921814 ) ) ;
#63 = DIRECTION ( 'NONE',  ( 3.491481338843133355E-15, -1.224646799147353207E-16, 1.000000000000000000 ) ) ;
#64 = CC_DESIGN_APPROVAL ( #10, ( #52 ) ) ;
#65 = COORDINATED_UNIVERSAL_TIME_OFFSET ( 1, 0, .AHEAD. ) ;
#66 = PRODUCT_DEFINITION_SHAPE ( 'NONE', 'NONE',  #6 ) ;
#67 =( GEOMETRIC_REPRESENTATION_CONTEXT ( 3 ) GLOBAL_UNCERTAINTY_ASSIGNED_CONTEXT ( ( #9 ) ) GLOBAL_UNIT_ASSIGNED_CONTEXT ( ( #127, #215, #165 ) ) REPRESENTATION_CONTEXT ( 'NONE', 'WORKASPACE' ) );
#68 = COORDINATED_UNIVERSAL_TIME_OFFSET ( 1, 0, .AHEAD. ) ;
#69 = AXIS2_PLACEMENT_3D ( 'NONE', #42, #108, #60 ) ;
#70 = APPROVAL_STATUS ( 'not_yet_approved' ) ;
#71 = CARTESIAN_POINT ( 'NONE',  ( 0.0000000000000000000, 0.0000000000000000000, 0.0000000000000000000 ) ) ;
#72 = PERSON_AND_ORGANIZATION_ROLE ( 'classification_officer' ) ;
#73 = CARTESIAN_POINT ( 'NONE',  ( 1.319779946082704535E-13, -4.629164900776995227E-15, 37.79999999999999716 ) ) ;
#74 = EDGE_LOOP ( 'NONE', ( #180 ) ) ;
#75 = FACE_OUTER_BOUND ( 'NONE', #145, .T. ) ;
#76 = CC_DESIGN_DATE_AND_TIME_ASSIGNMENT ( #154, #179, ( #6 ) ) ;
#77 = FACE_OUTER_BOUND ( 'NONE', #220, .T. ) ;
#78 = AXIS2_PLACEMENT_3D ( 'NONE', #73, #219, #116 ) ;
#79 = CARTESIAN_POINT ( 'NONE',  ( 4.189777606611760026E-14, 7.311328940476539417E-33, 12.00000000000000000 ) ) ;
#80 = MANIFOLD_SOLID_BREP ( 'Corps-Déplacer/Copier1[1]', #87 ) ;
#81 = MANIFOLD_SOLID_BREP ( 'Corps-Déplacer/Copier1[2]', #194 ) ;
#82 = AXIS2_PLACEMENT_3D ( 'NONE', #130, #22, #118 ) ;
#83 = ADVANCED_FACE ( 'NONE', ( #43, #184 ), #143, .T. ) ;
#84 = APPROVAL_ROLE ( '' ) ;
#85 = SHAPE_DEFINITION_REPRESENTATION ( #66, #13 ) ;
#86 = COORDINATED_UNIVERSAL_TIME_OFFSET ( 1, 0, .AHEAD. ) ;
#87 = CLOSED_SHELL ( 'NONE', ( #156, #33, #54, #104, #181 ) ) ;
#88 = PERSON_AND_ORGANIZATION_ROLE ( 'design_supplier' ) ;
#89 = ORIENTED_EDGE ( 'NONE', *, *, #212, .F. ) ;
#90 = EDGE_CURVE ( 'NONE', #160, #160, #20, .T. ) ;
#91 = DIRECTION ( 'NONE',  ( -3.491481338843133355E-15, 1.224646799147353207E-16, -1.000000000000000000 ) ) ;
#92 = LOCAL_TIME ( 10, 12, 3.000000000000000000, #65 ) ;
#93 = EDGE_LOOP ( 'NONE', ( #148 ) ) ;
#94 = ORIENTED_EDGE ( 'NONE', *, *, #121, .T. ) ;
#95 = DIRECTION ( 'NONE',  ( 1.000000000000000000, 0.0000000000000000000, 0.0000000000000000000 ) ) ;
#96 = FACE_OUTER_BOUND ( 'NONE', #182, .T. ) ;
#97 = CIRCLE ( 'NONE', #56, 0.9750000000000008660 ) ;
#98 = CC_DESIGN_PERSON_AND_ORGANIZATION_ASSIGNMENT ( #158, #26, ( #59 ) ) ;
#99 = COORDINATED_UNIVERSAL_TIME_OFFSET ( 1, 0, .AHEAD. ) ;
#100 = CC_DESIGN_APPROVAL ( #111, ( #59 ) ) ;
#101 = ADVANCED_FACE ( 'NONE', ( #197 ), #216, .T. ) ;
#102 = CARTESIAN_POINT ( 'NONE',  ( 1.965412498580366768E-15, -6.893739051711962862E-17, 0.5629165124598907166 ) ) ;
#103 = AXIS2_PLACEMENT_3D ( 'NONE', #79, #144, #50 ) ;
#104 = ADVANCED_FACE ( 'NONE', ( #77, #18 ), #40, .T. ) ;
#105 = PERSON_AND_ORGANIZATION ( #169, #196 ) ;
#106 = AXIS2_PLACEMENT_3D ( 'NONE', #102, #172, #133 ) ;
#107 = DIRECTION ( 'NONE',  ( 0.0000000000000000000, 1.000000000000000000, 0.0000000000000000000 ) ) ;
#108 = DIRECTION ( 'NONE',  ( 3.491481338843133355E-15, -1.224646799147353207E-16, 1.000000000000000000 ) ) ;
#109 = ORIENTED_EDGE ( 'NONE', *, *, #39, .F. ) ;
#110 = CARTESIAN_POINT ( 'NONE',  ( 0.0000000000000000000, 0.0000000000000000000, 0.0000000000000000000 ) ) ;
#111 = APPROVAL ( #155, 'UNSPECIFIED' ) ;
#112 = ORIENTED_EDGE ( 'NONE', *, *, #28, .F. ) ;
#113 = CARTESIAN_POINT ( 'NONE',  ( 1.319779946082704535E-13, 0.9999999999999963363, 37.79999999999999716 ) ) ;
#114 = ORIENTED_EDGE ( 'NONE', *, *, #90, .F. ) ;
#115 = FACE_OUTER_BOUND ( 'NONE', #93, .T. ) ;
#116 = DIRECTION ( 'NONE',  ( 0.0000000000000000000, 1.000000000000000000, 0.0000000000000000000 ) ) ;
#117 = CIRCLE ( 'NONE', #78, 1.000000000000000888 ) ;
#118 = DIRECTION ( 'NONE',  ( 0.0000000000000000000, -1.000000000000000000, 0.0000000000000000000 ) ) ;
#119 = ADVANCED_FACE ( 'NONE', ( #46 ), #136, .T. ) ;
#120 = CIRCLE ( 'NONE', #106, 0.9749999999999985345 ) ;
#121 = EDGE_CURVE ( 'NONE', #187, #187, #178, .T. ) ;
#122 = APPROVAL_PERSON_ORGANIZATION ( #19, #167, #53 ) ;
#123 = APPROVAL_DATE_TIME ( #142, #10 ) ;
#124 = DIRECTION ( 'NONE',  ( -3.491481338843133355E-15, 1.224646799147353207E-16, -1.000000000000000000 ) ) ;
#125 = CARTESIAN_POINT ( 'NONE',  ( 4.189777606611760026E-14, 0.9749999999999993117, 12.00000000000000000 ) ) ;
#126 = CARTESIAN_POINT ( 'NONE',  ( 4.189777606611760026E-14, -1.469576158976823947E-15, 12.00000000000000000 ) ) ;
#127 =( LENGTH_UNIT ( ) NAMED_UNIT ( * ) SI_UNIT ( .MILLI., .METRE. ) );
#128 = PERSON_AND_ORGANIZATION_ROLE ( 'design_owner' ) ;
#129 = EDGE_LOOP ( 'NONE', ( #89 ) ) ;
#130 = CARTESIAN_POINT ( 'NONE',  ( 4.204896164293145655E-14, -1.474879035170447788E-15, 12.04330127018921814 ) ) ;
#131 = DIRECTION ( 'NONE',  ( 0.0000000000000000000, 1.000000000000000000, 0.0000000000000000000 ) ) ;
#132 = AXIS2_PLACEMENT_3D ( 'NONE', #221, #63, #204 ) ;
#133 = DIRECTION ( 'NONE',  ( 3.950625526948182217E-31, 1.000000000000000000, 1.112002228190262677E-16 ) ) ;
#134 = PERSON_AND_ORGANIZATION_ROLE ( 'creator' ) ;
#135 = CALENDAR_DATE ( 2021, 8, 10 ) ;
#136 = CONICAL_SURFACE ( 'NONE', #132, 0.9749999999999985345, 1.047197551196592746 ) ;
#137 = DATE_TIME_ROLE ( 'classification_date' ) ;
#138 = CC_DESIGN_PERSON_AND_ORGANIZATION_ASSIGNMENT ( #3, #134, ( #6 ) ) ;
#139 = EDGE_CURVE ( 'NONE', #47, #47, #117, .T. ) ;
#140 = COORDINATED_UNIVERSAL_TIME_OFFSET ( 1, 0, .AHEAD. ) ;
#141 = DIRECTION ( 'NONE',  ( -3.491481338843133355E-15, 1.224646799147353207E-16, -1.000000000000000000 ) ) ;
#142 = DATE_AND_TIME ( #211, #4 ) ;
#143 = CYLINDRICAL_SURFACE ( 'NONE', #24, 0.9749999999999997558 ) ;
#144 = DIRECTION ( 'NONE',  ( 3.491481338843133355E-15, -1.224646799147353207E-16, 1.000000000000000000 ) ) ;
#145 = EDGE_LOOP ( 'NONE', ( #109 ) ) ;
#146 = CARTESIAN_POINT ( 'NONE',  ( 1.326762908760390423E-13, 0.7999999999999962697, 38.00000000000000000 ) ) ;
#147 = CARTESIAN_POINT ( 'NONE',  ( 1.326762908760390423E-13, -4.653657836759941941E-15, 38.00000000000000000 ) ) ;
#148 = ORIENTED_EDGE ( 'NONE', *, *, #90, .T. ) ;
#149 = PLANE ( 'NONE',  #103 ) ;
#150 = APPROVAL_DATE_TIME ( #193, #167 ) ;
#151 = CC_DESIGN_SECURITY_CLASSIFICATION ( #52, ( #59 ) ) ;
#152 = CARTESIAN_POINT ( 'NONE',  ( 1.326762908760390423E-13, -4.653657836759941941E-15, 38.00000000000000000 ) ) ;
#153 = CC_DESIGN_APPROVAL ( #167, ( #6 ) ) ;
#154 = DATE_AND_TIME ( #177, #37 ) ;
#155 = APPROVAL_STATUS ( 'not_yet_approved' ) ;
#156 = ADVANCED_FACE ( 'NONE', ( #115 ), #149, .F. ) ;
#157 = CALENDAR_DATE ( 2021, 8, 10 ) ;
#158 = PERSON_AND_ORGANIZATION ( #169, #196 ) ;
#159 = ORIENTED_EDGE ( 'NONE', *, *, #139, .F. ) ;
#160 = VERTEX_POINT ( 'NONE', #125 ) ;
#161 = EDGE_LOOP ( 'NONE', ( #36 ) ) ;
#162 = VERTEX_POINT ( 'NONE', #146 ) ;
#163 = LOCAL_TIME ( 10, 12, 3.000000000000000000, #86 ) ;
#164 = DIRECTION ( 'NONE',  ( -3.491481338843133355E-15, 1.224646799147353207E-16, -1.000000000000000000 ) ) ;
#165 =( NAMED_UNIT ( * ) SI_UNIT ( $, .STERADIAN. ) SOLID_ANGLE_UNIT ( ) );
#166 = DIRECTION ( 'NONE',  ( -3.491481338843133355E-15, 1.224646799147353207E-16, -1.000000000000000000 ) ) ;
#167 = APPROVAL ( #186, 'UNSPECIFIED' ) ;
#168 = MECHANICAL_CONTEXT ( 'NONE', #205, 'mechanical' ) ;
#169 = PERSON ( 'UNSPECIFIED', 'UNSPECIFIED', 'UNSPECIFIED', ('UNSPECIFIED'), ('UNSPECIFIED'), ('UNSPECIFIED') ) ;
#170 = AXIS2_PLACEMENT_3D ( 'NONE', #152, #23, #203 ) ;
#171 = FACE_BOUND ( 'NONE', #206, .T. ) ;
#172 = DIRECTION ( 'NONE',  ( -3.491481338843133355E-15, 1.224646799147353207E-16, -1.000000000000000000 ) ) ;
#173 = PERSON_AND_ORGANIZATION ( #169, #196 ) ;
#174 = APPROVAL_PERSON_ORGANIZATION ( #209, #10, #55 ) ;
#175 = APPLICATION_CONTEXT ( 'configuration controlled 3d designs of mechanical parts and assemblies' ) ;
#176 = CALENDAR_DATE ( 2021, 8, 10 ) ;
#177 = CALENDAR_DATE ( 2021, 8, 10 ) ;
#178 = CIRCLE ( 'NONE', #7, 0.9999999999999970024 ) ;
#179 = DATE_TIME_ROLE ( 'creation_date' ) ;
#180 = ORIENTED_EDGE ( 'NONE', *, *, #212, .T. ) ;
#181 = ADVANCED_FACE ( 'NONE', ( #75 ), #202, .F. ) ;
#182 = EDGE_LOOP ( 'NONE', ( #192 ) ) ;
#183 = DIRECTION ( 'NONE',  ( 0.0000000000000000000, 0.0000000000000000000, 1.000000000000000000 ) ) ;
#184 = FACE_OUTER_BOUND ( 'NONE', #74, .T. ) ;
#185 = EDGE_LOOP ( 'NONE', ( #112 ) ) ;
#186 = APPROVAL_STATUS ( 'not_yet_approved' ) ;
#187 = VERTEX_POINT ( 'NONE', #217 ) ;
#188 = CARTESIAN_POINT ( 'NONE',  ( 1.965412498580367162E-15, 0.9749999999999984235, 0.5629165124598908276 ) ) ;
#189 = LOCAL_TIME ( 10, 12, 3.000000000000000000, #68 ) ;
#190 = CIRCLE ( 'NONE', #170, 0.8000000000000009326 ) ;
#191 = FACE_OUTER_BOUND ( 'NONE', #44, .T. ) ;
#192 = ORIENTED_EDGE ( 'NONE', *, *, #139, .T. ) ;
#193 = DATE_AND_TIME ( #135, #92 ) ;
#194 = CLOSED_SHELL ( 'NONE', ( #119, #83, #101 ) ) ;
#195 = PERSON_AND_ORGANIZATION ( #169, #196 ) ;
#196 = ORGANIZATION ( 'UNSPECIFIED', 'UNSPECIFIED', '' ) ;
#197 = FACE_OUTER_BOUND ( 'NONE', #129, .T. ) ;
#198 = APPLICATION_PROTOCOL_DEFINITION ( 'international standard', 'config_control_design', 1994, #205 ) ;
#199 = DIRECTION ( 'NONE',  ( 4.275831445896957731E-31, 1.000000000000000000, 1.224646799147353454E-16 ) ) ;
#200 = ORIENTED_EDGE ( 'NONE', *, *, #39, .T. ) ;
#201 = APPLICATION_PROTOCOL_DEFINITION ( 'international standard', 'config_control_design', 1994, #175 ) ;
#202 = PLANE ( 'NONE',  #210 ) ;
#203 = DIRECTION ( 'NONE',  ( 0.0000000000000000000, 1.000000000000000000, 0.0000000000000000000 ) ) ;
#204 = DIRECTION ( 'NONE',  ( -3.950625526948182217E-31, -1.000000000000000000, -1.112002228190262677E-16 ) ) ;
#205 = APPLICATION_CONTEXT ( 'configuration controlled 3d designs of mechanical parts and assemblies' ) ;
#206 = EDGE_LOOP ( 'NONE', ( #114 ) ) ;
#207 = AXIS2_PLACEMENT_3D ( 'NONE', #126, #124, #107 ) ;
#208 = CC_DESIGN_PERSON_AND_ORGANIZATION_ASSIGNMENT ( #16, #128, ( #38 ) ) ;
#209 = PERSON_AND_ORGANIZATION ( #169, #196 ) ;
#210 = AXIS2_PLACEMENT_3D ( 'NONE', #30, #31, #34 ) ;
#211 = CALENDAR_DATE ( 2021, 8, 10 ) ;
#212 = EDGE_CURVE ( 'NONE', #32, #32, #97, .T. ) ;
#213 = DATE_AND_TIME ( #157, #163 ) ;
#214 = AXIS2_PLACEMENT_3D ( 'NONE', #57, #218, #199 ) ;
#215 =( NAMED_UNIT ( * ) PLANE_ANGLE_UNIT ( ) SI_UNIT ( $, .RADIAN. ) );
#216 = PLANE ( 'NONE',  #69 ) ;
#217 = CARTESIAN_POINT ( 'NONE',  ( 4.204896164293145655E-14, 0.9999999999999954481, 12.04330127018921814 ) ) ;
#218 = DIRECTION ( 'NONE',  ( -3.491481338843133355E-15, 1.224646799147353207E-16, -1.000000000000000000 ) ) ;
#219 = DIRECTION ( 'NONE',  ( -3.491481338843133355E-15, 1.224646799147353207E-16, -1.000000000000000000 ) ) ;
#220 = EDGE_LOOP ( 'NONE', ( #159 ) ) ;
#221 = CARTESIAN_POINT ( 'NONE',  ( 1.965412498580366768E-15, -6.893739051711962862E-17, 0.5629165124598907166 ) ) ;
#222 = DIRECTION ( 'NONE',  ( 0.0000000000000000000, 1.000000000000000000, 0.0000000000000000000 ) ) ;
#223 = VERTEX_POINT ( 'NONE', #188 ) ;
ENDSEC;
END-ISO-10303-21;
