ISO-10303-21;
HEADER;
FILE_DESCRIPTION (( 'STEP AP203' ),
    '1' );
FILE_NAME ('55797.step',
    '2021-10-08T08:12:03',
    ( '' ),
    ( '' ),
    'SwSTEP 2.0',
    'SolidWorks 2019',
    '' );
FILE_SCHEMA (( 'CONFIG_CONTROL_DESIGN' ));
ENDSEC;

DATA;
#1 = CALENDAR_DATE ( 2021, 8, 10 ) ;
#2 =( GEOMETRIC_REPRESENTATION_CONTEXT ( 3 ) GLOBAL_UNCERTAINTY_ASSIGNED_CONTEXT ( ( #117 ) ) GLOBAL_UNIT_ASSIGNED_CONTEXT ( ( #148, #12, #133 ) ) REPRESENTATION_CONTEXT ( 'NONE', 'WORKASPACE' ) );
#3 = FACE_OUTER_BOUND ( 'NONE', #45, .T. ) ;
#4 = VERTEX_POINT ( 'NONE', #113 ) ;
#5 = DIRECTION ( 'NONE',  ( -3.491481338843133355E-15, 1.224646799147353207E-16, -1.000000000000000000 ) ) ;
#6 = DIRECTION ( 'NONE',  ( -3.491481338843133355E-15, 1.224646799147353207E-16, -1.000000000000000000 ) ) ;
#7 = AXIS2_PLACEMENT_3D ( 'NONE', #102, #44, #103 ) ;
#8 = CARTESIAN_POINT ( 'NONE',  ( 4.220014721974533807E-14, 0.9999999999999954481, 12.08660254037843984 ) ) ;
#9 = ADVANCED_FACE ( 'NONE', ( #206 ), #188, .F. ) ;
#10 = EDGE_LOOP ( 'NONE', ( #218 ) ) ;
#11 = APPROVAL ( #140, 'UNSPECIFIED' ) ;
#12 =( NAMED_UNIT ( * ) PLANE_ANGLE_UNIT ( ) SI_UNIT ( $, .RADIAN. ) );
#13 = PERSON_AND_ORGANIZATION_ROLE ( 'design_owner' ) ;
#14 = ADVANCED_FACE ( 'NONE', ( #109 ), #127, .T. ) ;
#15 = APPROVAL_STATUS ( 'not_yet_approved' ) ;
#16 = CC_DESIGN_APPROVAL ( #11, ( #22 ) ) ;
#17 = ORIENTED_EDGE ( 'NONE', *, *, #198, .T. ) ;
#18 = CALENDAR_DATE ( 2021, 8, 10 ) ;
#19 = DIRECTION ( 'NONE',  ( 4.275831445896958607E-31, 1.000000000000000000, 1.224646799147353207E-16 ) ) ;
#20 = CALENDAR_DATE ( 2021, 8, 10 ) ;
#21 = DATE_TIME_ROLE ( 'creation_date' ) ;
#22 = PRODUCT_DEFINITION_FORMATION_WITH_SPECIFIED_SOURCE ( 'ANY', '', #60, .NOT_KNOWN. ) ;
#23 = CARTESIAN_POINT ( 'NONE',  ( 4.189777606611760026E-14, -1.469576158976823947E-15, 12.00000000000000000 ) ) ;
#24 = CARTESIAN_POINT ( 'NONE',  ( 1.326762908760390423E-13, -4.653657836759941941E-15, 38.00000000000000000 ) ) ;
#25 = CYLINDRICAL_SURFACE ( 'NONE', #166, 0.9999999999999988898 ) ;
#26 = AXIS2_PLACEMENT_3D ( 'NONE', #170, #75, #19 ) ;
#27 = DESIGN_CONTEXT ( 'detailed design', #174, 'design' ) ;
#28 = FACE_BOUND ( 'NONE', #49, .T. ) ;
#29 = CARTESIAN_POINT ( 'NONE',  ( 1.915017306309075818E-15, 0.9499999999999985123, 0.5484827557301501511 ) ) ;
#30 = PRODUCT_DEFINITION ( 'UNKNOWN', '', #22, #27 ) ;
#31 = CC_DESIGN_PERSON_AND_ORGANIZATION_ASSIGNMENT ( #205, #157, ( #22 ) ) ;
#32 = EDGE_LOOP ( 'NONE', ( #125 ) ) ;
#33 = PERSON_AND_ORGANIZATION ( #84, #56 ) ;
#34 = ORIENTED_EDGE ( 'NONE', *, *, #198, .F. ) ;
#35 = SHAPE_DEFINITION_REPRESENTATION ( #217, #65 ) ;
#36 = CARTESIAN_POINT ( 'NONE',  ( 4.189777606611760026E-14, 7.123858967643801742E-33, 12.00000000000000000 ) ) ;
#37 = FACE_OUTER_BOUND ( 'NONE', #139, .T. ) ;
#38 = CC_DESIGN_DATE_AND_TIME_ASSIGNMENT ( #184, #21, ( #30 ) ) ;
#39 = DIRECTION ( 'NONE',  ( -3.491481338843133355E-15, 1.224646799147353207E-16, -1.000000000000000000 ) ) ;
#40 = DIRECTION ( 'NONE',  ( -4.275831445896958607E-31, -1.000000000000000000, -1.224646799147353207E-16 ) ) ;
#41 = CARTESIAN_POINT ( 'NONE',  ( 1.326762908760390423E-13, 0.7999999999999962697, 38.00000000000000000 ) ) ;
#42 = CC_DESIGN_PERSON_AND_ORGANIZATION_ASSIGNMENT ( #87, #13, ( #60 ) ) ;
#43 = DIRECTION ( 'NONE',  ( -3.491481338843133355E-15, 1.224646799147353207E-16, -1.000000000000000000 ) ) ;
#44 = DIRECTION ( 'NONE',  ( 0.0000000000000000000, 0.0000000000000000000, 1.000000000000000000 ) ) ;
#45 = EDGE_LOOP ( 'NONE', ( #204 ) ) ;
#46 = CC_DESIGN_APPROVAL ( #153, ( #86 ) ) ;
#47 = DATE_TIME_ROLE ( 'classification_date' ) ;
#48 = CIRCLE ( 'NONE', #175, 0.8000000000000009326 ) ;
#49 = EDGE_LOOP ( 'NONE', ( #17 ) ) ;
#50 = APPROVAL_ROLE ( '' ) ;
#51 = APPROVAL_DATE_TIME ( #186, #81 ) ;
#52 = ADVANCED_FACE ( 'NONE', ( #223 ), #90, .T. ) ;
#53 = DIRECTION ( 'NONE',  ( 4.275831445896958607E-31, 1.000000000000000000, 1.224646799147353454E-16 ) ) ;
#54 = DIRECTION ( 'NONE',  ( 3.491481338843133355E-15, -1.224646799147353207E-16, 1.000000000000000000 ) ) ;
#55 = CARTESIAN_POINT ( 'NONE',  ( 0.0000000000000000000, 0.0000000000000000000, 0.0000000000000000000 ) ) ;
#56 = ORGANIZATION ( 'UNSPECIFIED', 'UNSPECIFIED', '' ) ;
#57 = FACE_OUTER_BOUND ( 'NONE', #69, .T. ) ;
#58 = AXIS2_PLACEMENT_3D ( 'NONE', #158, #5, #80 ) ;
#59 = CARTESIAN_POINT ( 'NONE',  ( 4.189777606611760026E-14, 0.9499999999999986233, 12.00000000000000000 ) ) ;
#60 = PRODUCT ( '55797', '55797', '', ( #201 ) ) ;
#61 = CC_DESIGN_DATE_AND_TIME_ASSIGNMENT ( #220, #47, ( #86 ) ) ;
#62 = ORIENTED_EDGE ( 'NONE', *, *, #67, .F. ) ;
#63 = ORIENTED_EDGE ( 'NONE', *, *, #73, .F. ) ;
#64 = CIRCLE ( 'NONE', #190, 0.9999999999999970024 ) ;
#65 = ADVANCED_BREP_SHAPE_REPRESENTATION ( '55797', ( #101, #168, #7 ), #2 ) ;
#66 = ORIENTED_EDGE ( 'NONE', *, *, #73, .T. ) ;
#67 = EDGE_CURVE ( 'NONE', #194, #194, #151, .T. ) ;
#68 = APPROVAL_DATE_TIME ( #104, #153 ) ;
#69 = EDGE_LOOP ( 'NONE', ( #219 ) ) ;
#70 = APPLICATION_PROTOCOL_DEFINITION ( 'international standard', 'config_control_design', 1994, #174 ) ;
#71 = DIRECTION ( 'NONE',  ( -4.054589356604712821E-31, -1.000000000000000000, -1.141265444721585237E-16 ) ) ;
#72 = ORIENTED_EDGE ( 'NONE', *, *, #111, .T. ) ;
#73 = EDGE_CURVE ( 'NONE', #162, #162, #114, .T. ) ;
#74 = CARTESIAN_POINT ( 'NONE',  ( 4.189777606611760026E-14, -1.469576158976823947E-15, 12.00000000000000000 ) ) ;
#75 = DIRECTION ( 'NONE',  ( -3.491481338843133355E-15, 1.224646799147353207E-16, -1.000000000000000000 ) ) ;
#76 = PERSON_AND_ORGANIZATION ( #84, #56 ) ;
#77 = PLANE ( 'NONE',  #160 ) ;
#78 = DIRECTION ( 'NONE',  ( 0.0000000000000000000, 1.000000000000000000, 0.0000000000000000000 ) ) ;
#79 = CIRCLE ( 'NONE', #179, 1.000000000000000888 ) ;
#80 = DIRECTION ( 'NONE',  ( 4.054589356604712821E-31, 1.000000000000000000, 1.141265444721585237E-16 ) ) ;
#81 = APPROVAL ( #138, 'UNSPECIFIED' ) ;
#82 = CLOSED_SHELL ( 'NONE', ( #143, #196, #121, #96, #9 ) ) ;
#83 = AXIS2_PLACEMENT_3D ( 'NONE', #74, #141, #176 ) ;
#84 = PERSON ( 'UNSPECIFIED', 'UNSPECIFIED', 'UNSPECIFIED', ('UNSPECIFIED'), ('UNSPECIFIED'), ('UNSPECIFIED') ) ;
#85 = COORDINATED_UNIVERSAL_TIME_OFFSET ( 1, 0, .AHEAD. ) ;
#86 = SECURITY_CLASSIFICATION ( '', '', #203 ) ;
#87 = PERSON_AND_ORGANIZATION ( #84, #56 ) ;
#88 = AXIS2_PLACEMENT_3D ( 'NONE', #23, #6, #146 ) ;
#89 = PERSON_AND_ORGANIZATION_ROLE ( 'classification_officer' ) ;
#90 = CONICAL_SURFACE ( 'NONE', #210, 0.9499999999999986233, 1.047197551196592746 ) ;
#91 = DIRECTION ( 'NONE',  ( 3.491481338843133355E-15, -1.224646799147353207E-16, 1.000000000000000000 ) ) ;
#92 = LOCAL_TIME ( 10, 12, 3.000000000000000000, #108 ) ;
#93 = APPROVAL_DATE_TIME ( #152, #11 ) ;
#94 = CARTESIAN_POINT ( 'NONE',  ( 1.915017306309075424E-15, -6.716976511924478911E-17, 0.5484827557301500400 ) ) ;
#95 = CLOSED_SHELL ( 'NONE', ( #52, #112, #14 ) ) ;
#96 = ADVANCED_FACE ( 'NONE', ( #3, #28 ), #129, .T. ) ;
#97 = FACE_OUTER_BOUND ( 'NONE', #32, .T. ) ;
#98 = CARTESIAN_POINT ( 'NONE',  ( 0.0000000000000000000, 0.0000000000000000000, 0.0000000000000000000 ) ) ;
#99 = DIRECTION ( 'NONE',  ( -3.491481338843133355E-15, 1.224646799147353207E-16, -1.000000000000000000 ) ) ;
#100 = CARTESIAN_POINT ( 'NONE',  ( 4.220014721974533807E-14, -1.480181911364072417E-15, 12.08660254037843984 ) ) ;
#101 = MANIFOLD_SOLID_BREP ( 'Corps-Déplacer/Copier1[1]', #82 ) ;
#102 = CARTESIAN_POINT ( 'NONE',  ( 0.0000000000000000000, 0.0000000000000000000, 0.0000000000000000000 ) ) ;
#103 = DIRECTION ( 'NONE',  ( 1.000000000000000000, 0.0000000000000000000, 0.0000000000000000000 ) ) ;
#104 = DATE_AND_TIME ( #1, #215 ) ;
#105 = EDGE_CURVE ( 'NONE', #132, #132, #120, .T. ) ;
#106 = PERSON_AND_ORGANIZATION_ROLE ( 'creator' ) ;
#107 = DIRECTION ( 'NONE',  ( 3.491481338843133355E-15, -1.224646799147353207E-16, 1.000000000000000000 ) ) ;
#108 = COORDINATED_UNIVERSAL_TIME_OFFSET ( 1, 0, .AHEAD. ) ;
#109 = FACE_OUTER_BOUND ( 'NONE', #122, .T. ) ;
#110 = CARTESIAN_POINT ( 'NONE',  ( 4.189777606611760026E-14, 0.9499999999999986233, 12.00000000000000000 ) ) ;
#111 = EDGE_CURVE ( 'NONE', #4, #4, #79, .T. ) ;
#112 = ADVANCED_FACE ( 'NONE', ( #37, #161 ), #213, .T. ) ;
#113 = CARTESIAN_POINT ( 'NONE',  ( 1.319779946082704535E-13, 0.9999999999999963363, 37.79999999999999716 ) ) ;
#114 = CIRCLE ( 'NONE', #58, 0.9499999999999986233 ) ;
#115 = FACE_OUTER_BOUND ( 'NONE', #137, .T. ) ;
#116 = EDGE_LOOP ( 'NONE', ( #202 ) ) ;
#117 = UNCERTAINTY_MEASURE_WITH_UNIT (LENGTH_MEASURE( 1.000000000000000082E-05 ), #148, 'distance_accuracy_value', 'NONE');
#118 = LOCAL_TIME ( 10, 12, 3.000000000000000000, #85 ) ;
#119 = COORDINATED_UNIVERSAL_TIME_OFFSET ( 1, 0, .AHEAD. ) ;
#120 = CIRCLE ( 'NONE', #88, 0.9500000000000000666 ) ;
#121 = ADVANCED_FACE ( 'NONE', ( #57, #177 ), #25, .T. ) ;
#122 = EDGE_LOOP ( 'NONE', ( #62 ) ) ;
#123 = PERSON_AND_ORGANIZATION_ROLE ( 'design_supplier' ) ;
#124 = DIRECTION ( 'NONE',  ( -4.275831445896958607E-31, -1.000000000000000000, -1.224646799147353207E-16 ) ) ;
#125 = ORIENTED_EDGE ( 'NONE', *, *, #105, .T. ) ;
#126 = PERSON_AND_ORGANIZATION ( #84, #56 ) ;
#127 = PLANE ( 'NONE',  #136 ) ;
#128 = DIRECTION ( 'NONE',  ( 0.0000000000000000000, 1.000000000000000000, 0.0000000000000000000 ) ) ;
#129 = CONICAL_SURFACE ( 'NONE', #199, 0.8000000000000009326, 0.7853981633974512766 ) ;
#130 = DIRECTION ( 'NONE',  ( 0.0000000000000000000, 1.000000000000000000, 0.0000000000000000000 ) ) ;
#131 = DIRECTION ( 'NONE',  ( 3.491481338843133355E-15, -1.224646799147353207E-16, 1.000000000000000000 ) ) ;
#132 = VERTEX_POINT ( 'NONE', #110 ) ;
#133 =( NAMED_UNIT ( * ) SI_UNIT ( $, .STERADIAN. ) SOLID_ANGLE_UNIT ( ) );
#134 = APPROVAL_PERSON_ORGANIZATION ( #33, #81, #169 ) ;
#135 = AXIS2_PLACEMENT_3D ( 'NONE', #55, #163, #53 ) ;
#136 = AXIS2_PLACEMENT_3D ( 'NONE', #36, #107, #124 ) ;
#137 = EDGE_LOOP ( 'NONE', ( #155 ) ) ;
#138 = APPROVAL_STATUS ( 'not_yet_approved' ) ;
#139 = EDGE_LOOP ( 'NONE', ( #63 ) ) ;
#140 = APPROVAL_STATUS ( 'not_yet_approved' ) ;
#141 = DIRECTION ( 'NONE',  ( -3.491481338843133355E-15, 1.224646799147353207E-16, -1.000000000000000000 ) ) ;
#142 = CALENDAR_DATE ( 2021, 8, 10 ) ;
#143 = ADVANCED_FACE ( 'NONE', ( #97 ), #77, .F. ) ;
#144 = APPROVAL_PERSON_ORGANIZATION ( #154, #153, #156 ) ;
#145 = CARTESIAN_POINT ( 'NONE',  ( 1.326762908760390423E-13, -4.653657836759941941E-15, 38.00000000000000000 ) ) ;
#146 = DIRECTION ( 'NONE',  ( 0.0000000000000000000, 1.000000000000000000, 0.0000000000000000000 ) ) ;
#147 = APPROVAL_PERSON_ORGANIZATION ( #172, #11, #50 ) ;
#148 =( LENGTH_UNIT ( ) NAMED_UNIT ( * ) SI_UNIT ( .MILLI., .METRE. ) );
#149 = AXIS2_PLACEMENT_3D ( 'NONE', #100, #131, #181 ) ;
#150 = EDGE_LOOP ( 'NONE', ( #72 ) ) ;
#151 = CIRCLE ( 'NONE', #83, 0.9500000000000000666 ) ;
#152 = DATE_AND_TIME ( #173, #182 ) ;
#153 = APPROVAL ( #15, 'UNSPECIFIED' ) ;
#154 = PERSON_AND_ORGANIZATION ( #84, #56 ) ;
#155 = ORIENTED_EDGE ( 'NONE', *, *, #187, .T. ) ;
#156 = APPROVAL_ROLE ( '' ) ;
#157 = PERSON_AND_ORGANIZATION_ROLE ( 'creator' ) ;
#158 = CARTESIAN_POINT ( 'NONE',  ( 1.915017306309075424E-15, -6.716976511924478911E-17, 0.5484827557301500400 ) ) ;
#159 = CARTESIAN_POINT ( 'NONE',  ( 4.220014721974533807E-14, -1.480181911364072417E-15, 12.08660254037843984 ) ) ;
#160 = AXIS2_PLACEMENT_3D ( 'NONE', #209, #54, #40 ) ;
#161 = FACE_OUTER_BOUND ( 'NONE', #10, .T. ) ;
#162 = VERTEX_POINT ( 'NONE', #29 ) ;
#163 = DIRECTION ( 'NONE',  ( -3.491481338843133355E-15, 1.224646799147353207E-16, -1.000000000000000000 ) ) ;
#164 = APPLICATION_CONTEXT ( 'configuration controlled 3d designs of mechanical parts and assemblies' ) ;
#165 = APPLICATION_PROTOCOL_DEFINITION ( 'international standard', 'config_control_design', 1994, #164 ) ;
#166 = AXIS2_PLACEMENT_3D ( 'NONE', #98, #200, #211 ) ;
#167 = PERSON_AND_ORGANIZATION ( #84, #56 ) ;
#168 = MANIFOLD_SOLID_BREP ( 'Corps-Déplacer/Copier1[2]', #95 ) ;
#169 = APPROVAL_ROLE ( '' ) ;
#170 = CARTESIAN_POINT ( 'NONE',  ( 1.326762908760390423E-13, 5.999039130647367482E-33, 38.00000000000000000 ) ) ;
#171 = PRODUCT_RELATED_PRODUCT_CATEGORY ( 'detail', '', ( #60 ) ) ;
#172 = PERSON_AND_ORGANIZATION ( #84, #56 ) ;
#173 = CALENDAR_DATE ( 2021, 8, 10 ) ;
#174 = APPLICATION_CONTEXT ( 'configuration controlled 3d designs of mechanical parts and assemblies' ) ;
#175 = AXIS2_PLACEMENT_3D ( 'NONE', #145, #99, #128 ) ;
#176 = DIRECTION ( 'NONE',  ( 0.0000000000000000000, 1.000000000000000000, 0.0000000000000000000 ) ) ;
#177 = FACE_OUTER_BOUND ( 'NONE', #150, .T. ) ;
#178 = VERTEX_POINT ( 'NONE', #8 ) ;
#179 = AXIS2_PLACEMENT_3D ( 'NONE', #180, #39, #195 ) ;
#180 = CARTESIAN_POINT ( 'NONE',  ( 1.319779946082704535E-13, -4.629164900776995227E-15, 37.79999999999999716 ) ) ;
#181 = DIRECTION ( 'NONE',  ( 0.0000000000000000000, -1.000000000000000000, 0.0000000000000000000 ) ) ;
#182 = LOCAL_TIME ( 10, 12, 3.000000000000000000, #207 ) ;
#183 = EDGE_LOOP ( 'NONE', ( #34 ) ) ;
#184 = DATE_AND_TIME ( #142, #118 ) ;
#185 = CONICAL_SURFACE ( 'NONE', #149, 0.9999999999999970024, 0.5235987755982922653 ) ;
#186 = DATE_AND_TIME ( #18, #92 ) ;
#187 = EDGE_CURVE ( 'NONE', #178, #178, #64, .T. ) ;
#188 = PLANE ( 'NONE',  #26 ) ;
#189 = COORDINATED_UNIVERSAL_TIME_OFFSET ( 1, 0, .AHEAD. ) ;
#190 = AXIS2_PLACEMENT_3D ( 'NONE', #159, #43, #130 ) ;
#191 = CC_DESIGN_SECURITY_CLASSIFICATION ( #86, ( #22 ) ) ;
#192 = CC_DESIGN_PERSON_AND_ORGANIZATION_ASSIGNMENT ( #167, #106, ( #30 ) ) ;
#193 = FACE_BOUND ( 'NONE', #116, .T. ) ;
#194 = VERTEX_POINT ( 'NONE', #59 ) ;
#195 = DIRECTION ( 'NONE',  ( 0.0000000000000000000, 1.000000000000000000, 0.0000000000000000000 ) ) ;
#196 = ADVANCED_FACE ( 'NONE', ( #193, #115 ), #185, .T. ) ;
#197 = VERTEX_POINT ( 'NONE', #41 ) ;
#198 = EDGE_CURVE ( 'NONE', #197, #197, #48, .T. ) ;
#199 = AXIS2_PLACEMENT_3D ( 'NONE', #24, #216, #78 ) ;
#200 = DIRECTION ( 'NONE',  ( -3.491481338843133355E-15, 1.224646799147353207E-16, -1.000000000000000000 ) ) ;
#201 = MECHANICAL_CONTEXT ( 'NONE', #164, 'mechanical' ) ;
#202 = ORIENTED_EDGE ( 'NONE', *, *, #105, .F. ) ;
#203 = SECURITY_CLASSIFICATION_LEVEL ( 'unclassified' ) ;
#204 = ORIENTED_EDGE ( 'NONE', *, *, #111, .F. ) ;
#205 = PERSON_AND_ORGANIZATION ( #84, #56 ) ;
#206 = FACE_OUTER_BOUND ( 'NONE', #183, .T. ) ;
#207 = COORDINATED_UNIVERSAL_TIME_OFFSET ( 1, 0, .AHEAD. ) ;
#208 = LOCAL_TIME ( 10, 12, 3.000000000000000000, #189 ) ;
#209 = CARTESIAN_POINT ( 'NONE',  ( 4.189777606611760026E-14, 7.123858967643801742E-33, 12.00000000000000000 ) ) ;
#210 = AXIS2_PLACEMENT_3D ( 'NONE', #94, #91, #71 ) ;
#211 = DIRECTION ( 'NONE',  ( 4.275831445896957731E-31, 1.000000000000000000, 1.224646799147353454E-16 ) ) ;
#212 = CC_DESIGN_PERSON_AND_ORGANIZATION_ASSIGNMENT ( #76, #123, ( #22 ) ) ;
#213 = CYLINDRICAL_SURFACE ( 'NONE', #135, 0.9499999999999994005 ) ;
#214 = CC_DESIGN_APPROVAL ( #81, ( #30 ) ) ;
#215 = LOCAL_TIME ( 10, 12, 3.000000000000000000, #119 ) ;
#216 = DIRECTION ( 'NONE',  ( -3.491481338843133355E-15, 1.224646799147353207E-16, -1.000000000000000000 ) ) ;
#217 = PRODUCT_DEFINITION_SHAPE ( 'NONE', 'NONE',  #30 ) ;
#218 = ORIENTED_EDGE ( 'NONE', *, *, #67, .T. ) ;
#219 = ORIENTED_EDGE ( 'NONE', *, *, #187, .F. ) ;
#220 = DATE_AND_TIME ( #20, #208 ) ;
#221 = CC_DESIGN_PERSON_AND_ORGANIZATION_ASSIGNMENT ( #126, #89, ( #86 ) ) ;
#222 = EDGE_LOOP ( 'NONE', ( #66 ) ) ;
#223 = FACE_OUTER_BOUND ( 'NONE', #222, .T. ) ;
ENDSEC;
END-ISO-10303-21;
