ISO-10303-21;
HEADER;
FILE_DESCRIPTION (( 'STEP AP203' ),
    '1' );
FILE_NAME ('55795.step',
    '2021-10-08T08:12:01',
    ( '' ),
    ( '' ),
    'SwSTEP 2.0',
    'SolidWorks 2019',
    '' );
FILE_SCHEMA (( 'CONFIG_CONTROL_DESIGN' ));
ENDSEC;

DATA;
#1 = CARTESIAN_POINT ( 'NONE',  ( 4.189777606611760026E-14, 6.936388994811065436E-33, 12.00000000000000000 ) ) ;
#2 = AXIS2_PLACEMENT_3D ( 'NONE', #33, #22, #157 ) ;
#3 = CARTESIAN_POINT ( 'NONE',  ( 1.326762908760390423E-13, 0.7999999999999962697, 38.00000000000000000 ) ) ;
#4 = DATE_AND_TIME ( #109, #215 ) ;
#5 = PERSON_AND_ORGANIZATION ( #85, #69 ) ;
#6 =( NAMED_UNIT ( * ) PLANE_ANGLE_UNIT ( ) SI_UNIT ( $, .RADIAN. ) );
#7 = CLOSED_SHELL ( 'NONE', ( #193, #159, #138, #64, #145 ) ) ;
#8 = CONICAL_SURFACE ( 'NONE', #13, 0.9999999999999970024, 0.5235987755982968173 ) ;
#9 = EDGE_LOOP ( 'NONE', ( #119 ) ) ;
#10 = UNCERTAINTY_MEASURE_WITH_UNIT (LENGTH_MEASURE( 1.000000000000000082E-05 ), #124, 'distance_accuracy_value', 'NONE');
#11 = FACE_BOUND ( 'NONE', #151, .T. ) ;
#12 = ORIENTED_EDGE ( 'NONE', *, *, #59, .T. ) ;
#13 = AXIS2_PLACEMENT_3D ( 'NONE', #139, #123, #87 ) ;
#14 = ORIENTED_EDGE ( 'NONE', *, *, #46, .T. ) ;
#15 = DIRECTION ( 'NONE',  ( -3.491481338843133355E-15, 1.224646799147353207E-16, -1.000000000000000000 ) ) ;
#16 = VERTEX_POINT ( 'NONE', #207 ) ;
#17 = VERTEX_POINT ( 'NONE', #68 ) ;
#18 = DIRECTION ( 'NONE',  ( -4.275831445896958607E-31, -1.000000000000000000, -1.224646799147353207E-16 ) ) ;
#19 = VERTEX_POINT ( 'NONE', #143 ) ;
#20 = CIRCLE ( 'NONE', #150, 1.000000000000000888 ) ;
#21 = AXIS2_PLACEMENT_3D ( 'NONE', #182, #61, #218 ) ;
#22 = DIRECTION ( 'NONE',  ( -3.491481338843133355E-15, 1.224646799147353207E-16, -1.000000000000000000 ) ) ;
#23 = COORDINATED_UNIVERSAL_TIME_OFFSET ( 1, 0, .AHEAD. ) ;
#24 = SHAPE_DEFINITION_REPRESENTATION ( #147, #62 ) ;
#25 = AXIS2_PLACEMENT_3D ( 'NONE', #202, #204, #18 ) ;
#26 = APPROVAL_ROLE ( '' ) ;
#27 = COORDINATED_UNIVERSAL_TIME_OFFSET ( 1, 0, .AHEAD. ) ;
#28 = ADVANCED_FACE ( 'NONE', ( #80 ), #120, .T. ) ;
#29 = ORIENTED_EDGE ( 'NONE', *, *, #179, .T. ) ;
#30 = EDGE_LOOP ( 'NONE', ( #199 ) ) ;
#31 = DIRECTION ( 'NONE',  ( -3.491481338843133355E-15, 1.224646799147353207E-16, -1.000000000000000000 ) ) ;
#32 = EDGE_LOOP ( 'NONE', ( #14 ) ) ;
#33 = CARTESIAN_POINT ( 'NONE',  ( 4.235133279655920698E-14, -1.485484787557697047E-15, 12.12990381056766331 ) ) ;
#34 = CYLINDRICAL_SURFACE ( 'NONE', #37, 0.9999999999999988898 ) ;
#35 = SECURITY_CLASSIFICATION ( '', '', #148 ) ;
#36 = FACE_OUTER_BOUND ( 'NONE', #219, .T. ) ;
#37 = AXIS2_PLACEMENT_3D ( 'NONE', #222, #174, #103 ) ;
#38 = COORDINATED_UNIVERSAL_TIME_OFFSET ( 1, 0, .AHEAD. ) ;
#39 = DATE_AND_TIME ( #93, #165 ) ;
#40 = CALENDAR_DATE ( 2021, 8, 10 ) ;
#41 = CIRCLE ( 'NONE', #90, 0.9249999999999993783 ) ;
#42 = APPLICATION_PROTOCOL_DEFINITION ( 'international standard', 'config_control_design', 1994, #44 ) ;
#43 = APPROVAL_PERSON_ORGANIZATION ( #127, #88, #26 ) ;
#44 = APPLICATION_CONTEXT ( 'configuration controlled 3d designs of mechanical parts and assemblies' ) ;
#45 = FACE_OUTER_BOUND ( 'NONE', #115, .T. ) ;
#46 = EDGE_CURVE ( 'NONE', #19, #19, #20, .T. ) ;
#47 = DIRECTION ( 'NONE',  ( 0.0000000000000000000, 1.000000000000000000, 0.0000000000000000000 ) ) ;
#48 = CARTESIAN_POINT ( 'NONE',  ( 0.0000000000000000000, 0.0000000000000000000, 0.0000000000000000000 ) ) ;
#49 = CC_DESIGN_APPROVAL ( #208, ( #84 ) ) ;
#50 = DIRECTION ( 'NONE',  ( 3.491481338843133355E-15, -1.224646799147353207E-16, 1.000000000000000000 ) ) ;
#51 = VERTEX_POINT ( 'NONE', #172 ) ;
#52 = ADVANCED_FACE ( 'NONE', ( #196, #45 ), #98, .T. ) ;
#53 = PERSON_AND_ORGANIZATION_ROLE ( 'design_owner' ) ;
#54 = APPROVAL_DATE_TIME ( #131, #88 ) ;
#55 = DESIGN_CONTEXT ( 'detailed design', #44, 'design' ) ;
#56 = CALENDAR_DATE ( 2021, 8, 10 ) ;
#57 = AXIS2_PLACEMENT_3D ( 'NONE', #116, #31, #65 ) ;
#58 = DIRECTION ( 'NONE',  ( 1.000000000000000000, 0.0000000000000000000, 0.0000000000000000000 ) ) ;
#59 = EDGE_CURVE ( 'NONE', #186, #186, #210, .T. ) ;
#60 = DIRECTION ( 'NONE',  ( 0.0000000000000000000, 1.000000000000000000, 0.0000000000000000000 ) ) ;
#61 = DIRECTION ( 'NONE',  ( -3.491481338843133355E-15, 1.224646799147353207E-16, -1.000000000000000000 ) ) ;
#62 = ADVANCED_BREP_SHAPE_REPRESENTATION ( '55795', ( #188, #117, #96 ), #129 ) ;
#63 = LOCAL_TIME ( 10, 12, 1.000000000000000000, #38 ) ;
#64 = ADVANCED_FACE ( 'NONE', ( #169, #11 ), #205, .T. ) ;
#65 = DIRECTION ( 'NONE',  ( 4.164172852729164566E-31, 1.000000000000000000, 1.172110456741087554E-16 ) ) ;
#66 = FACE_BOUND ( 'NONE', #198, .T. ) ;
#67 = CARTESIAN_POINT ( 'NONE',  ( 1.326762908760390423E-13, 5.999039130647367482E-33, 38.00000000000000000 ) ) ;
#68 = CARTESIAN_POINT ( 'NONE',  ( 4.189777606611760026E-14, 0.9249999999999978240, 12.00000000000000000 ) ) ;
#69 = ORGANIZATION ( 'UNSPECIFIED', 'UNSPECIFIED', '' ) ;
#70 = DIRECTION ( 'NONE',  ( 0.0000000000000000000, 1.000000000000000000, 0.0000000000000000000 ) ) ;
#71 = CC_DESIGN_APPROVAL ( #88, ( #35 ) ) ;
#72 = DATE_TIME_ROLE ( 'creation_date' ) ;
#73 = PERSON_AND_ORGANIZATION_ROLE ( 'creator' ) ;
#74 = PERSON_AND_ORGANIZATION_ROLE ( 'classification_officer' ) ;
#75 = CC_DESIGN_APPROVAL ( #76, ( #78 ) ) ;
#76 = APPROVAL ( #149, 'UNSPECIFIED' ) ;
#77 = PERSON_AND_ORGANIZATION ( #85, #69 ) ;
#78 = PRODUCT_DEFINITION_FORMATION_WITH_SPECIFIED_SOURCE ( 'ANY', '', #126, .NOT_KNOWN. ) ;
#79 = EDGE_LOOP ( 'NONE', ( #168 ) ) ;
#80 = FACE_OUTER_BOUND ( 'NONE', #81, .T. ) ;
#81 = EDGE_LOOP ( 'NONE', ( #153 ) ) ;
#82 = DIRECTION ( 'NONE',  ( -4.164172852729164566E-31, -1.000000000000000000, -1.172110456741087554E-16 ) ) ;
#83 = LOCAL_TIME ( 10, 12, 1.000000000000000000, #27 ) ;
#84 = PRODUCT_DEFINITION ( 'UNKNOWN', '', #78, #55 ) ;
#85 = PERSON ( 'UNSPECIFIED', 'UNSPECIFIED', 'UNSPECIFIED', ('UNSPECIFIED'), ('UNSPECIFIED'), ('UNSPECIFIED') ) ;
#86 = ORIENTED_EDGE ( 'NONE', *, *, #118, .T. ) ;
#87 = DIRECTION ( 'NONE',  ( 0.0000000000000000000, -1.000000000000000000, 0.0000000000000000000 ) ) ;
#88 = APPROVAL ( #180, 'UNSPECIFIED' ) ;
#89 = PLANE ( 'NONE',  #25 ) ;
#90 = AXIS2_PLACEMENT_3D ( 'NONE', #206, #201, #70 ) ;
#91 = DIRECTION ( 'NONE',  ( -4.275831445896958607E-31, -1.000000000000000000, -1.224646799147353207E-16 ) ) ;
#92 = APPROVAL_STATUS ( 'not_yet_approved' ) ;
#93 = CALENDAR_DATE ( 2021, 8, 10 ) ;
#94 = PERSON_AND_ORGANIZATION ( #85, #69 ) ;
#95 = CC_DESIGN_DATE_AND_TIME_ASSIGNMENT ( #176, #164, ( #35 ) ) ;
#96 = AXIS2_PLACEMENT_3D ( 'NONE', #113, #162, #58 ) ;
#97 = EDGE_LOOP ( 'NONE', ( #99 ) ) ;
#98 = CYLINDRICAL_SURFACE ( 'NONE', #175, 0.9249999999999989342 ) ;
#99 = ORIENTED_EDGE ( 'NONE', *, *, #59, .F. ) ;
#100 = AXIS2_PLACEMENT_3D ( 'NONE', #67, #105, #189 ) ;
#101 = EDGE_LOOP ( 'NONE', ( #195 ) ) ;
#102 = DIRECTION ( 'NONE',  ( 3.491481338843133355E-15, -1.224646799147353207E-16, 1.000000000000000000 ) ) ;
#103 = DIRECTION ( 'NONE',  ( 4.275831445896957731E-31, 1.000000000000000000, 1.224646799147353454E-16 ) ) ;
#104 = CC_DESIGN_PERSON_AND_ORGANIZATION_ASSIGNMENT ( #94, #73, ( #84 ) ) ;
#105 = DIRECTION ( 'NONE',  ( -3.491481338843133355E-15, 1.224646799147353207E-16, -1.000000000000000000 ) ) ;
#106 = PLANE ( 'NONE',  #100 ) ;
#107 = FACE_OUTER_BOUND ( 'NONE', #79, .T. ) ;
#108 = AXIS2_PLACEMENT_3D ( 'NONE', #170, #15, #60 ) ;
#109 = CALENDAR_DATE ( 2021, 8, 10 ) ;
#110 = CALENDAR_DATE ( 2021, 8, 10 ) ;
#111 = COORDINATED_UNIVERSAL_TIME_OFFSET ( 1, 0, .AHEAD. ) ;
#112 = AXIS2_PLACEMENT_3D ( 'NONE', #134, #197, #47 ) ;
#113 = CARTESIAN_POINT ( 'NONE',  ( 0.0000000000000000000, 0.0000000000000000000, 0.0000000000000000000 ) ) ;
#114 = APPROVAL_ROLE ( '' ) ;
#115 = EDGE_LOOP ( 'NONE', ( #86 ) ) ;
#116 = CARTESIAN_POINT ( 'NONE',  ( 1.864622114037783685E-15, -6.540213972136991261E-17, 0.5340489990004091414 ) ) ;
#117 = MANIFOLD_SOLID_BREP ( 'Corps-Déplacer/Copier1[2]', #166 ) ;
#118 = EDGE_CURVE ( 'NONE', #141, #141, #184, .T. ) ;
#119 = ORIENTED_EDGE ( 'NONE', *, *, #46, .F. ) ;
#120 = CONICAL_SURFACE ( 'NONE', #181, 0.9249999999999986011, 1.047197551196592746 ) ;
#121 = DIRECTION ( 'NONE',  ( -3.491481338843133355E-15, 1.224646799147353207E-16, -1.000000000000000000 ) ) ;
#122 = PRODUCT_RELATED_PRODUCT_CATEGORY ( 'detail', '', ( #126 ) ) ;
#123 = DIRECTION ( 'NONE',  ( 3.491481338843133355E-15, -1.224646799147353207E-16, 1.000000000000000000 ) ) ;
#124 =( LENGTH_UNIT ( ) NAMED_UNIT ( * ) SI_UNIT ( .MILLI., .METRE. ) );
#125 = EDGE_CURVE ( 'NONE', #16, #16, #152, .T. ) ;
#126 = PRODUCT ( '55795', '55795', '', ( #191 ) ) ;
#127 = PERSON_AND_ORGANIZATION ( #85, #69 ) ;
#128 = PERSON_AND_ORGANIZATION ( #85, #69 ) ;
#129 =( GEOMETRIC_REPRESENTATION_CONTEXT ( 3 ) GLOBAL_UNCERTAINTY_ASSIGNED_CONTEXT ( ( #10 ) ) GLOBAL_UNIT_ASSIGNED_CONTEXT ( ( #124, #6, #212 ) ) REPRESENTATION_CONTEXT ( 'NONE', 'WORKASPACE' ) );
#130 = APPROVAL_ROLE ( '' ) ;
#131 = DATE_AND_TIME ( #110, #63 ) ;
#132 = CC_DESIGN_PERSON_AND_ORGANIZATION_ASSIGNMENT ( #192, #74, ( #35 ) ) ;
#133 = DIRECTION ( 'NONE',  ( -3.491481338843133355E-15, 1.224646799147353207E-16, -1.000000000000000000 ) ) ;
#134 = CARTESIAN_POINT ( 'NONE',  ( 4.189777606611760026E-14, -1.469576158976823947E-15, 12.00000000000000000 ) ) ;
#135 = ORIENTED_EDGE ( 'NONE', *, *, #179, .F. ) ;
#136 = LOCAL_TIME ( 10, 12, 1.000000000000000000, #111 ) ;
#137 = FACE_OUTER_BOUND ( 'NONE', #183, .T. ) ;
#138 = ADVANCED_FACE ( 'NONE', ( #107, #221 ), #34, .T. ) ;
#139 = CARTESIAN_POINT ( 'NONE',  ( 4.235133279655920698E-14, -1.485484787557697047E-15, 12.12990381056766331 ) ) ;
#140 = APPLICATION_CONTEXT ( 'configuration controlled 3d designs of mechanical parts and assemblies' ) ;
#141 = VERTEX_POINT ( 'NONE', #171 ) ;
#142 = CIRCLE ( 'NONE', #2, 0.9999999999999970024 ) ;
#143 = CARTESIAN_POINT ( 'NONE',  ( 1.319779946082704535E-13, 0.9999999999999963363, 37.79999999999999716 ) ) ;
#144 = APPLICATION_PROTOCOL_DEFINITION ( 'international standard', 'config_control_design', 1994, #140 ) ;
#145 = ADVANCED_FACE ( 'NONE', ( #158 ), #106, .F. ) ;
#146 = PERSON_AND_ORGANIZATION_ROLE ( 'design_supplier' ) ;
#147 = PRODUCT_DEFINITION_SHAPE ( 'NONE', 'NONE',  #84 ) ;
#148 = SECURITY_CLASSIFICATION_LEVEL ( 'unclassified' ) ;
#149 = APPROVAL_STATUS ( 'not_yet_approved' ) ;
#150 = AXIS2_PLACEMENT_3D ( 'NONE', #154, #133, #220 ) ;
#151 = EDGE_LOOP ( 'NONE', ( #12 ) ) ;
#152 = CIRCLE ( 'NONE', #57, 0.9249999999999986011 ) ;
#153 = ORIENTED_EDGE ( 'NONE', *, *, #125, .T. ) ;
#154 = CARTESIAN_POINT ( 'NONE',  ( 1.319779946082704535E-13, -4.629164900776995227E-15, 37.79999999999999716 ) ) ;
#155 = CARTESIAN_POINT ( 'NONE',  ( 1.864622114037783685E-15, -6.540213972136991261E-17, 0.5340489990004091414 ) ) ;
#156 = CC_DESIGN_PERSON_AND_ORGANIZATION_ASSIGNMENT ( #128, #146, ( #78 ) ) ;
#157 = DIRECTION ( 'NONE',  ( 0.0000000000000000000, 1.000000000000000000, 0.0000000000000000000 ) ) ;
#158 = FACE_OUTER_BOUND ( 'NONE', #97, .T. ) ;
#159 = ADVANCED_FACE ( 'NONE', ( #66, #36 ), #8, .T. ) ;
#160 = FACE_OUTER_BOUND ( 'NONE', #101, .T. ) ;
#161 = CC_DESIGN_SECURITY_CLASSIFICATION ( #35, ( #78 ) ) ;
#162 = DIRECTION ( 'NONE',  ( 0.0000000000000000000, 0.0000000000000000000, 1.000000000000000000 ) ) ;
#163 = EDGE_CURVE ( 'NONE', #51, #51, #142, .T. ) ;
#164 = DATE_TIME_ROLE ( 'classification_date' ) ;
#165 = LOCAL_TIME ( 10, 12, 1.000000000000000000, #23 ) ;
#166 = CLOSED_SHELL ( 'NONE', ( #28, #52, #187 ) ) ;
#167 = AXIS2_PLACEMENT_3D ( 'NONE', #1, #50, #91 ) ;
#168 = ORIENTED_EDGE ( 'NONE', *, *, #163, .F. ) ;
#169 = FACE_OUTER_BOUND ( 'NONE', #9, .T. ) ;
#170 = CARTESIAN_POINT ( 'NONE',  ( 1.326762908760390423E-13, -4.653657836759941941E-15, 38.00000000000000000 ) ) ;
#171 = CARTESIAN_POINT ( 'NONE',  ( 4.189777606611760026E-14, 0.9249999999999978240, 12.00000000000000000 ) ) ;
#172 = CARTESIAN_POINT ( 'NONE',  ( 4.235133279655920698E-14, 0.9999999999999954481, 12.12990381056766331 ) ) ;
#173 = PLANE ( 'NONE',  #167 ) ;
#174 = DIRECTION ( 'NONE',  ( -3.491481338843133355E-15, 1.224646799147353207E-16, -1.000000000000000000 ) ) ;
#175 = AXIS2_PLACEMENT_3D ( 'NONE', #48, #121, #185 ) ;
#176 = DATE_AND_TIME ( #56, #83 ) ;
#177 = APPROVAL_PERSON_ORGANIZATION ( #77, #208, #130 ) ;
#178 = APPROVAL_DATE_TIME ( #39, #76 ) ;
#179 = EDGE_CURVE ( 'NONE', #17, #17, #41, .T. ) ;
#180 = APPROVAL_STATUS ( 'not_yet_approved' ) ;
#181 = AXIS2_PLACEMENT_3D ( 'NONE', #155, #102, #82 ) ;
#182 = CARTESIAN_POINT ( 'NONE',  ( 1.326762908760390423E-13, -4.653657836759941941E-15, 38.00000000000000000 ) ) ;
#183 = EDGE_LOOP ( 'NONE', ( #29 ) ) ;
#184 = CIRCLE ( 'NONE', #112, 0.9249999999999993783 ) ;
#185 = DIRECTION ( 'NONE',  ( 4.275831445896958607E-31, 1.000000000000000000, 1.224646799147353454E-16 ) ) ;
#186 = VERTEX_POINT ( 'NONE', #3 ) ;
#187 = ADVANCED_FACE ( 'NONE', ( #160 ), #173, .T. ) ;
#188 = MANIFOLD_SOLID_BREP ( 'Corps-Déplacer/Copier1[1]', #7 ) ;
#189 = DIRECTION ( 'NONE',  ( 4.275831445896958607E-31, 1.000000000000000000, 1.224646799147353207E-16 ) ) ;
#190 = CC_DESIGN_DATE_AND_TIME_ASSIGNMENT ( #213, #72, ( #84 ) ) ;
#191 = MECHANICAL_CONTEXT ( 'NONE', #140, 'mechanical' ) ;
#192 = PERSON_AND_ORGANIZATION ( #85, #69 ) ;
#193 = ADVANCED_FACE ( 'NONE', ( #137 ), #89, .F. ) ;
#194 = COORDINATED_UNIVERSAL_TIME_OFFSET ( 1, 0, .AHEAD. ) ;
#195 = ORIENTED_EDGE ( 'NONE', *, *, #118, .F. ) ;
#196 = FACE_OUTER_BOUND ( 'NONE', #30, .T. ) ;
#197 = DIRECTION ( 'NONE',  ( -3.491481338843133355E-15, 1.224646799147353207E-16, -1.000000000000000000 ) ) ;
#198 = EDGE_LOOP ( 'NONE', ( #135 ) ) ;
#199 = ORIENTED_EDGE ( 'NONE', *, *, #125, .F. ) ;
#200 = APPROVAL_PERSON_ORGANIZATION ( #216, #76, #114 ) ;
#201 = DIRECTION ( 'NONE',  ( -3.491481338843133355E-15, 1.224646799147353207E-16, -1.000000000000000000 ) ) ;
#202 = CARTESIAN_POINT ( 'NONE',  ( 4.189777606611760026E-14, 6.936388994811065436E-33, 12.00000000000000000 ) ) ;
#203 = CC_DESIGN_PERSON_AND_ORGANIZATION_ASSIGNMENT ( #209, #214, ( #78 ) ) ;
#204 = DIRECTION ( 'NONE',  ( 3.491481338843133355E-15, -1.224646799147353207E-16, 1.000000000000000000 ) ) ;
#205 = CONICAL_SURFACE ( 'NONE', #108, 0.8000000000000009326, 0.7853981633974512766 ) ;
#206 = CARTESIAN_POINT ( 'NONE',  ( 4.189777606611760026E-14, -1.469576158976823947E-15, 12.00000000000000000 ) ) ;
#207 = CARTESIAN_POINT ( 'NONE',  ( 1.864622114037784079E-15, 0.9249999999999984901, 0.5340489990004092524 ) ) ;
#208 = APPROVAL ( #92, 'UNSPECIFIED' ) ;
#209 = PERSON_AND_ORGANIZATION ( #85, #69 ) ;
#210 = CIRCLE ( 'NONE', #21, 0.8000000000000009326 ) ;
#211 = APPROVAL_DATE_TIME ( #4, #208 ) ;
#212 =( NAMED_UNIT ( * ) SI_UNIT ( $, .STERADIAN. ) SOLID_ANGLE_UNIT ( ) );
#213 = DATE_AND_TIME ( #40, #136 ) ;
#214 = PERSON_AND_ORGANIZATION_ROLE ( 'creator' ) ;
#215 = LOCAL_TIME ( 10, 12, 1.000000000000000000, #194 ) ;
#216 = PERSON_AND_ORGANIZATION ( #85, #69 ) ;
#217 = ORIENTED_EDGE ( 'NONE', *, *, #163, .T. ) ;
#218 = DIRECTION ( 'NONE',  ( 0.0000000000000000000, 1.000000000000000000, 0.0000000000000000000 ) ) ;
#219 = EDGE_LOOP ( 'NONE', ( #217 ) ) ;
#220 = DIRECTION ( 'NONE',  ( 0.0000000000000000000, 1.000000000000000000, 0.0000000000000000000 ) ) ;
#221 = FACE_OUTER_BOUND ( 'NONE', #32, .T. ) ;
#222 = CARTESIAN_POINT ( 'NONE',  ( 0.0000000000000000000, 0.0000000000000000000, 0.0000000000000000000 ) ) ;
#223 = CC_DESIGN_PERSON_AND_ORGANIZATION_ASSIGNMENT ( #5, #53, ( #126 ) ) ;
ENDSEC;
END-ISO-10303-21;
