ISO-10303-21;
HEADER;
FILE_DESCRIPTION (( 'STEP AP203' ),
    '1' );
FILE_NAME ('55793.step',
    '2021-10-08T08:12:00',
    ( '' ),
    ( '' ),
    'SwSTEP 2.0',
    'SolidWorks 2019',
    '' );
FILE_SCHEMA (( 'CONFIG_CONTROL_DESIGN' ));
ENDSEC;

DATA;
#1 = AXIS2_PLACEMENT_3D ( 'NONE', #145, #143, #98 ) ;
#2 = CARTESIAN_POINT ( 'NONE',  ( 1.814226921766492735E-15, 0.8999999999999984679, 0.5196152422706684648 ) ) ;
#3 = FACE_OUTER_BOUND ( 'NONE', #223, .T. ) ;
#4 = MECHANICAL_CONTEXT ( 'NONE', #131, 'mechanical' ) ;
#5 = DIRECTION ( 'NONE',  ( 0.0000000000000000000, 1.000000000000000000, 0.0000000000000000000 ) ) ;
#6 = COORDINATED_UNIVERSAL_TIME_OFFSET ( 1, 0, .AHEAD. ) ;
#7 = CARTESIAN_POINT ( 'NONE',  ( 4.250251837337308220E-14, -1.490787663751321676E-15, 12.17320508075688501 ) ) ;
#8 = PERSON_AND_ORGANIZATION ( #129, #43 ) ;
#9 = DIRECTION ( 'NONE',  ( -3.491481338843133355E-15, 1.224646799147353207E-16, -1.000000000000000000 ) ) ;
#10 = APPROVAL_STATUS ( 'not_yet_approved' ) ;
#11 = CARTESIAN_POINT ( 'NONE',  ( 1.326762908760390423E-13, 0.7999999999999962697, 38.00000000000000000 ) ) ;
#12 = CC_DESIGN_DATE_AND_TIME_ASSIGNMENT ( #163, #79, ( #53 ) ) ;
#13 = ORIENTED_EDGE ( 'NONE', *, *, #82, .F. ) ;
#14 = PLANE ( 'NONE',  #140 ) ;
#15 = ORIENTED_EDGE ( 'NONE', *, *, #93, .T. ) ;
#16 = DIRECTION ( 'NONE',  ( 4.275831445896957731E-31, 1.000000000000000000, 1.224646799147353454E-16 ) ) ;
#17 = DIRECTION ( 'NONE',  ( 4.275831445896958607E-31, 1.000000000000000000, 1.224646799147353207E-16 ) ) ;
#18 = CARTESIAN_POINT ( 'NONE',  ( 0.0000000000000000000, 0.0000000000000000000, 0.0000000000000000000 ) ) ;
#19 = DIRECTION ( 'NONE',  ( 1.000000000000000000, 0.0000000000000000000, 0.0000000000000000000 ) ) ;
#20 = FACE_OUTER_BOUND ( 'NONE', #173, .T. ) ;
#21 = APPROVAL_ROLE ( '' ) ;
#22 = SECURITY_CLASSIFICATION ( '', '', #50 ) ;
#23 = MANIFOLD_SOLID_BREP ( 'Corps-Déplacer/Copier1[2]', #148 ) ;
#24 = CARTESIAN_POINT ( 'NONE',  ( 1.326762908760390423E-13, -4.653657836759941941E-15, 38.00000000000000000 ) ) ;
#25 = APPROVAL_ROLE ( '' ) ;
#26 = PRODUCT_RELATED_PRODUCT_CATEGORY ( 'detail', '', ( #86 ) ) ;
#27 = APPLICATION_PROTOCOL_DEFINITION ( 'international standard', 'config_control_design', 1994, #131 ) ;
#28 = CIRCLE ( 'NONE', #61, 0.8999999999999985789 ) ;
#29 = AXIS2_PLACEMENT_3D ( 'NONE', #78, #52, #105 ) ;
#30 = ORIENTED_EDGE ( 'NONE', *, *, #118, .T. ) ;
#31 = AXIS2_PLACEMENT_3D ( 'NONE', #122, #54, #17 ) ;
#32 = ORIENTED_EDGE ( 'NONE', *, *, #170, .F. ) ;
#33 = CARTESIAN_POINT ( 'NONE',  ( 4.189777606611760026E-14, 6.748919021978340077E-33, 12.00000000000000000 ) ) ;
#34 = FACE_BOUND ( 'NONE', #75, .T. ) ;
#35 = COORDINATED_UNIVERSAL_TIME_OFFSET ( 1, 0, .AHEAD. ) ;
#36 = VERTEX_POINT ( 'NONE', #179 ) ;
#37 = CALENDAR_DATE ( 2021, 8, 10 ) ;
#38 = DIRECTION ( 'NONE',  ( 3.491481338843133355E-15, -1.224646799147353207E-16, 1.000000000000000000 ) ) ;
#39 = DIRECTION ( 'NONE',  ( 0.0000000000000000000, 0.0000000000000000000, 1.000000000000000000 ) ) ;
#40 = CC_DESIGN_APPROVAL ( #138, ( #22 ) ) ;
#41 = DIRECTION ( 'NONE',  ( -3.491481338843133355E-15, 1.224646799147353207E-16, -1.000000000000000000 ) ) ;
#42 = CC_DESIGN_APPROVAL ( #203, ( #53 ) ) ;
#43 = ORGANIZATION ( 'UNSPECIFIED', 'UNSPECIFIED', '' ) ;
#44 = ORIENTED_EDGE ( 'NONE', *, *, #170, .T. ) ;
#45 = EDGE_LOOP ( 'NONE', ( #13 ) ) ;
#46 = ADVANCED_FACE ( 'NONE', ( #132 ), #49, .T. ) ;
#47 = APPROVAL_PERSON_ORGANIZATION ( #194, #138, #184 ) ;
#48 = FACE_OUTER_BOUND ( 'NONE', #209, .T. ) ;
#49 = CONICAL_SURFACE ( 'NONE', #67, 0.8999999999999985789, 1.047197551196592746 ) ;
#50 = SECURITY_CLASSIFICATION_LEVEL ( 'unclassified' ) ;
#51 = VERTEX_POINT ( 'NONE', #193 ) ;
#52 = DIRECTION ( 'NONE',  ( 3.491481338843133355E-15, -1.224646799147353207E-16, 1.000000000000000000 ) ) ;
#53 = PRODUCT_DEFINITION ( 'UNKNOWN', '', #114, #108 ) ;
#54 = DIRECTION ( 'NONE',  ( -3.491481338843133355E-15, 1.224646799147353207E-16, -1.000000000000000000 ) ) ;
#55 = CARTESIAN_POINT ( 'NONE',  ( 0.0000000000000000000, 0.0000000000000000000, 0.0000000000000000000 ) ) ;
#56 = ADVANCED_FACE ( 'NONE', ( #96 ), #14, .F. ) ;
#57 = EDGE_LOOP ( 'NONE', ( #94 ) ) ;
#58 = LOCAL_TIME ( 10, 12, 0.0000000000000000000, #109 ) ;
#59 = ORIENTED_EDGE ( 'NONE', *, *, #65, .T. ) ;
#60 = ORIENTED_EDGE ( 'NONE', *, *, #82, .T. ) ;
#61 = AXIS2_PLACEMENT_3D ( 'NONE', #63, #136, #70 ) ;
#62 = CARTESIAN_POINT ( 'NONE',  ( 4.189777606611760026E-14, -1.469576158976823947E-15, 12.00000000000000000 ) ) ;
#63 = CARTESIAN_POINT ( 'NONE',  ( 1.814226921766492341E-15, -6.363451432349504844E-17, 0.5196152422706683538 ) ) ;
#64 = DATE_AND_TIME ( #212, #58 ) ;
#65 = EDGE_CURVE ( 'NONE', #139, #139, #168, .T. ) ;
#66 = PLANE ( 'NONE',  #29 ) ;
#67 = AXIS2_PLACEMENT_3D ( 'NONE', #172, #207, #113 ) ;
#68 = CALENDAR_DATE ( 2021, 8, 10 ) ;
#69 = DIRECTION ( 'NONE',  ( 0.0000000000000000000, 1.000000000000000000, 0.0000000000000000000 ) ) ;
#70 = DIRECTION ( 'NONE',  ( 4.279844320860531027E-31, 1.000000000000000000, 1.204669080539451316E-16 ) ) ;
#71 = APPROVAL_DATE_TIME ( #158, #89 ) ;
#72 = CIRCLE ( 'NONE', #155, 0.9999999999999970024 ) ;
#73 = CC_DESIGN_PERSON_AND_ORGANIZATION_ASSIGNMENT ( #137, #217, ( #114 ) ) ;
#74 = AXIS2_PLACEMENT_3D ( 'NONE', #211, #103, #5 ) ;
#75 = EDGE_LOOP ( 'NONE', ( #32 ) ) ;
#76 = ORIENTED_EDGE ( 'NONE', *, *, #93, .F. ) ;
#77 = DIRECTION ( 'NONE',  ( 0.0000000000000000000, 1.000000000000000000, 0.0000000000000000000 ) ) ;
#78 = CARTESIAN_POINT ( 'NONE',  ( 4.189777606611760026E-14, 6.748919021978340077E-33, 12.00000000000000000 ) ) ;
#79 = DATE_TIME_ROLE ( 'creation_date' ) ;
#80 = CARTESIAN_POINT ( 'NONE',  ( 1.326762908760390423E-13, -4.653657836759941941E-15, 38.00000000000000000 ) ) ;
#81 = APPROVAL_DATE_TIME ( #64, #203 ) ;
#82 = EDGE_CURVE ( 'NONE', #214, #214, #28, .T. ) ;
#83 = VERTEX_POINT ( 'NONE', #161 ) ;
#84 = APPLICATION_PROTOCOL_DEFINITION ( 'international standard', 'config_control_design', 1994, #121 ) ;
#85 = DIRECTION ( 'NONE',  ( -3.491481338843133355E-15, 1.224646799147353207E-16, -1.000000000000000000 ) ) ;
#86 = PRODUCT ( '55793', '55793', '', ( #4 ) ) ;
#87 = DATE_AND_TIME ( #37, #182 ) ;
#88 =( LENGTH_UNIT ( ) NAMED_UNIT ( * ) SI_UNIT ( .MILLI., .METRE. ) );
#89 = APPROVAL ( #10, 'UNSPECIFIED' ) ;
#90 = AXIS2_PLACEMENT_3D ( 'NONE', #174, #41, #164 ) ;
#91 = APPROVAL_DATE_TIME ( #87, #138 ) ;
#92 = CIRCLE ( 'NONE', #74, 1.000000000000000888 ) ;
#93 = EDGE_CURVE ( 'NONE', #51, #51, #92, .T. ) ;
#94 = ORIENTED_EDGE ( 'NONE', *, *, #181, .F. ) ;
#95 = CIRCLE ( 'NONE', #222, 0.9000000000000003553 ) ;
#96 = FACE_OUTER_BOUND ( 'NONE', #206, .T. ) ;
#97 = CC_DESIGN_DATE_AND_TIME_ASSIGNMENT ( #106, #147, ( #22 ) ) ;
#98 = DIRECTION ( 'NONE',  ( 0.0000000000000000000, -1.000000000000000000, 0.0000000000000000000 ) ) ;
#99 = CONICAL_SURFACE ( 'NONE', #151, 0.8000000000000009326, 0.7853981633974512766 ) ;
#100 = COORDINATED_UNIVERSAL_TIME_OFFSET ( 1, 0, .AHEAD. ) ;
#101 = FACE_OUTER_BOUND ( 'NONE', #188, .T. ) ;
#102 = ADVANCED_FACE ( 'NONE', ( #34, #3 ), #213, .T. ) ;
#103 = DIRECTION ( 'NONE',  ( -3.491481338843133355E-15, 1.224646799147353207E-16, -1.000000000000000000 ) ) ;
#104 =( NAMED_UNIT ( * ) SI_UNIT ( $, .STERADIAN. ) SOLID_ANGLE_UNIT ( ) );
#105 = DIRECTION ( 'NONE',  ( -4.275831445896958607E-31, -1.000000000000000000, -1.224646799147353207E-16 ) ) ;
#106 = DATE_AND_TIME ( #120, #202 ) ;
#107 = VERTEX_POINT ( 'NONE', #11 ) ;
#108 = DESIGN_CONTEXT ( 'detailed design', #121, 'design' ) ;
#109 = COORDINATED_UNIVERSAL_TIME_OFFSET ( 1, 0, .AHEAD. ) ;
#110 = CLOSED_SHELL ( 'NONE', ( #56, #102, #200, #205, #175 ) ) ;
#111 = ORIENTED_EDGE ( 'NONE', *, *, #65, .F. ) ;
#112 = ORIENTED_EDGE ( 'NONE', *, *, #181, .T. ) ;
#113 = DIRECTION ( 'NONE',  ( -4.279844320860531027E-31, -1.000000000000000000, -1.204669080539451316E-16 ) ) ;
#114 = PRODUCT_DEFINITION_FORMATION_WITH_SPECIFIED_SOURCE ( 'ANY', '', #86, .NOT_KNOWN. ) ;
#115 = EDGE_LOOP ( 'NONE', ( #112 ) ) ;
#116 = DIRECTION ( 'NONE',  ( 0.0000000000000000000, 1.000000000000000000, 0.0000000000000000000 ) ) ;
#117 = FACE_OUTER_BOUND ( 'NONE', #154, .T. ) ;
#118 = EDGE_CURVE ( 'NONE', #36, #36, #72, .T. ) ;
#119 = CC_DESIGN_APPROVAL ( #89, ( #114 ) ) ;
#120 = CALENDAR_DATE ( 2021, 8, 10 ) ;
#121 = APPLICATION_CONTEXT ( 'configuration controlled 3d designs of mechanical parts and assemblies' ) ;
#122 = CARTESIAN_POINT ( 'NONE',  ( 0.0000000000000000000, 0.0000000000000000000, 0.0000000000000000000 ) ) ;
#123 = PERSON_AND_ORGANIZATION ( #129, #43 ) ;
#124 = DIRECTION ( 'NONE',  ( -3.491481338843133355E-15, 1.224646799147353207E-16, -1.000000000000000000 ) ) ;
#125 = APPROVAL_STATUS ( 'not_yet_approved' ) ;
#126 = PLANE ( 'NONE',  #90 ) ;
#127 = ADVANCED_BREP_SHAPE_REPRESENTATION ( '55793', ( #128, #23, #187 ), #220 ) ;
#128 = MANIFOLD_SOLID_BREP ( 'Corps-Déplacer/Copier1[1]', #110 ) ;
#129 = PERSON ( 'UNSPECIFIED', 'UNSPECIFIED', 'UNSPECIFIED', ('UNSPECIFIED'), ('UNSPECIFIED'), ('UNSPECIFIED') ) ;
#130 = EDGE_LOOP ( 'NONE', ( #60 ) ) ;
#131 = APPLICATION_CONTEXT ( 'configuration controlled 3d designs of mechanical parts and assemblies' ) ;
#132 = FACE_OUTER_BOUND ( 'NONE', #130, .T. ) ;
#133 = CC_DESIGN_PERSON_AND_ORGANIZATION_ASSIGNMENT ( #123, #141, ( #86 ) ) ;
#134 = AXIS2_PLACEMENT_3D ( 'NONE', #62, #195, #176 ) ;
#135 = DIRECTION ( 'NONE',  ( -3.491481338843133355E-15, 1.224646799147353207E-16, -1.000000000000000000 ) ) ;
#136 = DIRECTION ( 'NONE',  ( -3.491481338843133355E-15, 1.224646799147353207E-16, -1.000000000000000000 ) ) ;
#137 = PERSON_AND_ORGANIZATION ( #129, #43 ) ;
#138 = APPROVAL ( #192, 'UNSPECIFIED' ) ;
#139 = VERTEX_POINT ( 'NONE', #156 ) ;
#140 = AXIS2_PLACEMENT_3D ( 'NONE', #33, #38, #191 ) ;
#141 = PERSON_AND_ORGANIZATION_ROLE ( 'design_owner' ) ;
#142 = PRODUCT_DEFINITION_SHAPE ( 'NONE', 'NONE',  #53 ) ;
#143 = DIRECTION ( 'NONE',  ( 3.491481338843133355E-15, -1.224646799147353207E-16, 1.000000000000000000 ) ) ;
#144 = PERSON_AND_ORGANIZATION ( #129, #43 ) ;
#145 = CARTESIAN_POINT ( 'NONE',  ( 4.250251837337308220E-14, -1.490787663751321676E-15, 12.17320508075688501 ) ) ;
#146 = ADVANCED_FACE ( 'NONE', ( #157, #216 ), #198, .T. ) ;
#147 = DATE_TIME_ROLE ( 'classification_date' ) ;
#148 = CLOSED_SHELL ( 'NONE', ( #46, #146, #153 ) ) ;
#149 = SHAPE_DEFINITION_REPRESENTATION ( #142, #127 ) ;
#150 = AXIS2_PLACEMENT_3D ( 'NONE', #18, #9, #16 ) ;
#151 = AXIS2_PLACEMENT_3D ( 'NONE', #80, #159, #116 ) ;
#152 = ORIENTED_EDGE ( 'NONE', *, *, #118, .F. ) ;
#153 = ADVANCED_FACE ( 'NONE', ( #117 ), #66, .T. ) ;
#154 = EDGE_LOOP ( 'NONE', ( #111 ) ) ;
#155 = AXIS2_PLACEMENT_3D ( 'NONE', #7, #135, #210 ) ;
#156 = CARTESIAN_POINT ( 'NONE',  ( 4.189777606611760026E-14, 0.8999999999999989120, 12.00000000000000000 ) ) ;
#157 = FACE_OUTER_BOUND ( 'NONE', #45, .T. ) ;
#158 = DATE_AND_TIME ( #68, #171 ) ;
#159 = DIRECTION ( 'NONE',  ( -3.491481338843133355E-15, 1.224646799147353207E-16, -1.000000000000000000 ) ) ;
#160 = PERSON_AND_ORGANIZATION ( #129, #43 ) ;
#161 = CARTESIAN_POINT ( 'NONE',  ( 4.189777606611760026E-14, 0.8999999999999989120, 12.00000000000000000 ) ) ;
#162 = CIRCLE ( 'NONE', #208, 0.8000000000000009326 ) ;
#163 = DATE_AND_TIME ( #196, #219 ) ;
#164 = DIRECTION ( 'NONE',  ( 4.275831445896958607E-31, 1.000000000000000000, 1.224646799147353207E-16 ) ) ;
#165 = CC_DESIGN_PERSON_AND_ORGANIZATION_ASSIGNMENT ( #201, #166, ( #53 ) ) ;
#166 = PERSON_AND_ORGANIZATION_ROLE ( 'creator' ) ;
#167 = COORDINATED_UNIVERSAL_TIME_OFFSET ( 1, 0, .AHEAD. ) ;
#168 = CIRCLE ( 'NONE', #134, 0.9000000000000003553 ) ;
#169 = CC_DESIGN_SECURITY_CLASSIFICATION ( #22, ( #114 ) ) ;
#170 = EDGE_CURVE ( 'NONE', #83, #83, #95, .T. ) ;
#171 = LOCAL_TIME ( 10, 12, 0.0000000000000000000, #6 ) ;
#172 = CARTESIAN_POINT ( 'NONE',  ( 1.814226921766492341E-15, -6.363451432349504844E-17, 0.5196152422706683538 ) ) ;
#173 = EDGE_LOOP ( 'NONE', ( #15 ) ) ;
#174 = CARTESIAN_POINT ( 'NONE',  ( 1.326762908760390423E-13, 5.999039130647367482E-33, 38.00000000000000000 ) ) ;
#175 = ADVANCED_FACE ( 'NONE', ( #183 ), #126, .F. ) ;
#176 = DIRECTION ( 'NONE',  ( 0.0000000000000000000, 1.000000000000000000, 0.0000000000000000000 ) ) ;
#177 = CYLINDRICAL_SURFACE ( 'NONE', #150, 0.9999999999999988898 ) ;
#178 = PERSON_AND_ORGANIZATION ( #129, #43 ) ;
#179 = CARTESIAN_POINT ( 'NONE',  ( 4.250251837337308220E-14, 0.9999999999999954481, 12.17320508075688501 ) ) ;
#180 =( NAMED_UNIT ( * ) PLANE_ANGLE_UNIT ( ) SI_UNIT ( $, .RADIAN. ) );
#181 = EDGE_CURVE ( 'NONE', #107, #107, #162, .T. ) ;
#182 = LOCAL_TIME ( 10, 12, 0.0000000000000000000, #35 ) ;
#183 = FACE_OUTER_BOUND ( 'NONE', #57, .T. ) ;
#184 = APPROVAL_ROLE ( '' ) ;
#185 = PERSON_AND_ORGANIZATION_ROLE ( 'creator' ) ;
#186 = CC_DESIGN_PERSON_AND_ORGANIZATION_ASSIGNMENT ( #144, #185, ( #114 ) ) ;
#187 = AXIS2_PLACEMENT_3D ( 'NONE', #55, #39, #19 ) ;
#188 = EDGE_LOOP ( 'NONE', ( #152 ) ) ;
#189 = CC_DESIGN_PERSON_AND_ORGANIZATION_ASSIGNMENT ( #8, #215, ( #22 ) ) ;
#190 = FACE_BOUND ( 'NONE', #115, .T. ) ;
#191 = DIRECTION ( 'NONE',  ( -4.275831445896958607E-31, -1.000000000000000000, -1.224646799147353207E-16 ) ) ;
#192 = APPROVAL_STATUS ( 'not_yet_approved' ) ;
#193 = CARTESIAN_POINT ( 'NONE',  ( 1.319779946082704535E-13, 0.9999999999999963363, 37.79999999999999716 ) ) ;
#194 = PERSON_AND_ORGANIZATION ( #129, #43 ) ;
#195 = DIRECTION ( 'NONE',  ( -3.491481338843133355E-15, 1.224646799147353207E-16, -1.000000000000000000 ) ) ;
#196 = CALENDAR_DATE ( 2021, 8, 10 ) ;
#197 = APPROVAL_PERSON_ORGANIZATION ( #178, #89, #25 ) ;
#198 = CYLINDRICAL_SURFACE ( 'NONE', #31, 0.8999999999999995781 ) ;
#199 = UNCERTAINTY_MEASURE_WITH_UNIT (LENGTH_MEASURE( 1.000000000000000082E-05 ), #88, 'distance_accuracy_value', 'NONE');
#200 = ADVANCED_FACE ( 'NONE', ( #101, #20 ), #177, .T. ) ;
#201 = PERSON_AND_ORGANIZATION ( #129, #43 ) ;
#202 = LOCAL_TIME ( 10, 12, 0.0000000000000000000, #167 ) ;
#203 = APPROVAL ( #125, 'UNSPECIFIED' ) ;
#204 = APPROVAL_PERSON_ORGANIZATION ( #160, #203, #21 ) ;
#205 = ADVANCED_FACE ( 'NONE', ( #48, #190 ), #99, .T. ) ;
#206 = EDGE_LOOP ( 'NONE', ( #44 ) ) ;
#207 = DIRECTION ( 'NONE',  ( 3.491481338843133355E-15, -1.224646799147353207E-16, 1.000000000000000000 ) ) ;
#208 = AXIS2_PLACEMENT_3D ( 'NONE', #24, #85, #77 ) ;
#209 = EDGE_LOOP ( 'NONE', ( #76 ) ) ;
#210 = DIRECTION ( 'NONE',  ( 0.0000000000000000000, 1.000000000000000000, 0.0000000000000000000 ) ) ;
#211 = CARTESIAN_POINT ( 'NONE',  ( 1.319779946082704535E-13, -4.629164900776995227E-15, 37.79999999999999716 ) ) ;
#212 = CALENDAR_DATE ( 2021, 8, 10 ) ;
#213 = CONICAL_SURFACE ( 'NONE', #1, 0.9999999999999970024, 0.5235987755982914882 ) ;
#214 = VERTEX_POINT ( 'NONE', #2 ) ;
#215 = PERSON_AND_ORGANIZATION_ROLE ( 'classification_officer' ) ;
#216 = FACE_OUTER_BOUND ( 'NONE', #221, .T. ) ;
#217 = PERSON_AND_ORGANIZATION_ROLE ( 'design_supplier' ) ;
#218 = CARTESIAN_POINT ( 'NONE',  ( 4.189777606611760026E-14, -1.469576158976823947E-15, 12.00000000000000000 ) ) ;
#219 = LOCAL_TIME ( 10, 12, 0.0000000000000000000, #100 ) ;
#220 =( GEOMETRIC_REPRESENTATION_CONTEXT ( 3 ) GLOBAL_UNCERTAINTY_ASSIGNED_CONTEXT ( ( #199 ) ) GLOBAL_UNIT_ASSIGNED_CONTEXT ( ( #88, #180, #104 ) ) REPRESENTATION_CONTEXT ( 'NONE', 'WORKASPACE' ) );
#221 = EDGE_LOOP ( 'NONE', ( #59 ) ) ;
#222 = AXIS2_PLACEMENT_3D ( 'NONE', #218, #124, #69 ) ;
#223 = EDGE_LOOP ( 'NONE', ( #30 ) ) ;
ENDSEC;
END-ISO-10303-21;
