ISO-10303-21;
HEADER;
FILE_DESCRIPTION (( 'STEP AP203' ),
    '1' );
FILE_NAME ('55791.step',
    '2021-10-08T08:11:59',
    ( '' ),
    ( '' ),
    'SwSTEP 2.0',
    'SolidWorks 2019',
    '' );
FILE_SCHEMA (( 'CONFIG_CONTROL_DESIGN' ));
ENDSEC;

DATA;
#1 = EDGE_LOOP ( 'NONE', ( #218 ) ) ;
#2 = CIRCLE ( 'NONE', #140, 0.8749999999999985567 ) ;
#3 = ORIENTED_EDGE ( 'NONE', *, *, #67, .F. ) ;
#4 = CC_DESIGN_PERSON_AND_ORGANIZATION_ASSIGNMENT ( #33, #219, ( #135 ) ) ;
#5 = APPROVAL_ROLE ( '' ) ;
#6 = PERSON_AND_ORGANIZATION ( #159, #63 ) ;
#7 = CC_DESIGN_APPROVAL ( #44, ( #101 ) ) ;
#8 = DIRECTION ( 'NONE',  ( 0.0000000000000000000, 1.000000000000000000, 0.0000000000000000000 ) ) ;
#9 = CALENDAR_DATE ( 2021, 8, 10 ) ;
#10 = ORIENTED_EDGE ( 'NONE', *, *, #220, .F. ) ;
#11 = LOCAL_TIME ( 10, 11, 59.00000000000000000, #198 ) ;
#12 = CC_DESIGN_PERSON_AND_ORGANIZATION_ASSIGNMENT ( #90, #150, ( #31 ) ) ;
#13 = UNCERTAINTY_MEASURE_WITH_UNIT (LENGTH_MEASURE( 1.000000000000000082E-05 ), #98, 'distance_accuracy_value', 'NONE');
#14 = CONICAL_SURFACE ( 'NONE', #102, 0.8000000000000009326, 0.7853981633974512766 ) ;
#15 = FACE_OUTER_BOUND ( 'NONE', #162, .T. ) ;
#16 = CC_DESIGN_PERSON_AND_ORGANIZATION_ASSIGNMENT ( #115, #149, ( #101 ) ) ;
#17 = DIRECTION ( 'NONE',  ( 0.0000000000000000000, 1.000000000000000000, 0.0000000000000000000 ) ) ;
#18 = CALENDAR_DATE ( 2021, 8, 10 ) ;
#19 = FACE_OUTER_BOUND ( 'NONE', #128, .T. ) ;
#20 = CARTESIAN_POINT ( 'NONE',  ( 4.265370395018695741E-14, -1.496090539944946109E-15, 12.21650635094610671 ) ) ;
#21 = ORIENTED_EDGE ( 'NONE', *, *, #152, .F. ) ;
#22 = LOCAL_TIME ( 10, 11, 59.00000000000000000, #52 ) ;
#23 = CALENDAR_DATE ( 2021, 8, 10 ) ;
#24 = FACE_OUTER_BOUND ( 'NONE', #210, .T. ) ;
#25 = APPLICATION_PROTOCOL_DEFINITION ( 'international standard', 'config_control_design', 1994, #211 ) ;
#26 = EDGE_LOOP ( 'NONE', ( #190 ) ) ;
#27 = DATE_TIME_ROLE ( 'classification_date' ) ;
#28 = CARTESIAN_POINT ( 'NONE',  ( 1.326762908760390423E-13, 5.999039130647367482E-33, 38.00000000000000000 ) ) ;
#29 = CARTESIAN_POINT ( 'NONE',  ( 1.763831729495200996E-15, 0.8749999999999984457, 0.5051814855409275662 ) ) ;
#30 = FACE_BOUND ( 'NONE', #138, .T. ) ;
#31 = PRODUCT_DEFINITION ( 'UNKNOWN', '', #217, #205 ) ;
#32 = CLOSED_SHELL ( 'NONE', ( #95, #163, #45, #123, #208 ) ) ;
#33 = PERSON_AND_ORGANIZATION ( #159, #63 ) ;
#34 = ORIENTED_EDGE ( 'NONE', *, *, #170, .F. ) ;
#35 = COORDINATED_UNIVERSAL_TIME_OFFSET ( 1, 0, .AHEAD. ) ;
#36 = DIRECTION ( 'NONE',  ( -3.491481338843133355E-15, 1.224646799147353207E-16, -1.000000000000000000 ) ) ;
#37 = VERTEX_POINT ( 'NONE', #183 ) ;
#38 = CC_DESIGN_SECURITY_CLASSIFICATION ( #101, ( #217 ) ) ;
#39 = MECHANICAL_CONTEXT ( 'NONE', #203, 'mechanical' ) ;
#40 = DIRECTION ( 'NONE',  ( 3.491481338843133355E-15, -1.224646799147353207E-16, 1.000000000000000000 ) ) ;
#41 = DIRECTION ( 'NONE',  ( -4.275831445896958607E-31, -1.000000000000000000, -1.224646799147353207E-16 ) ) ;
#42 = MANIFOLD_SOLID_BREP ( 'Corps-Déplacer/Copier1[1]', #32 ) ;
#43 = DIRECTION ( 'NONE',  ( -3.491481338843133355E-15, 1.224646799147353207E-16, -1.000000000000000000 ) ) ;
#44 = APPROVAL ( #110, 'UNSPECIFIED' ) ;
#45 = ADVANCED_FACE ( 'NONE', ( #175, #78 ), #148, .T. ) ;
#46 = CC_DESIGN_APPROVAL ( #58, ( #31 ) ) ;
#47 = DIRECTION ( 'NONE',  ( 4.275831445896958607E-31, 1.000000000000000000, 1.224646799147353207E-16 ) ) ;
#48 = PERSON_AND_ORGANIZATION ( #159, #63 ) ;
#49 = APPROVAL_ROLE ( '' ) ;
#50 = ORIENTED_EDGE ( 'NONE', *, *, #220, .T. ) ;
#51 = VERTEX_POINT ( 'NONE', #114 ) ;
#52 = COORDINATED_UNIVERSAL_TIME_OFFSET ( 1, 0, .AHEAD. ) ;
#53 = EDGE_LOOP ( 'NONE', ( #50 ) ) ;
#54 = CIRCLE ( 'NONE', #202, 0.8749999999999987788 ) ;
#55 = AXIS2_PLACEMENT_3D ( 'NONE', #87, #222, #147 ) ;
#56 = CARTESIAN_POINT ( 'NONE',  ( 4.265370395018695741E-14, -1.496090539944946109E-15, 12.21650635094610671 ) ) ;
#57 = CONICAL_SURFACE ( 'NONE', #188, 0.9999999999999970024, 0.5235987755982973724 ) ;
#58 = APPROVAL ( #131, 'UNSPECIFIED' ) ;
#59 = DIRECTION ( 'NONE',  ( 3.491481338843133355E-15, -1.224646799147353207E-16, 1.000000000000000000 ) ) ;
#60 = CARTESIAN_POINT ( 'NONE',  ( 1.326762908760390423E-13, -4.653657836759941941E-15, 38.00000000000000000 ) ) ;
#61 = EDGE_LOOP ( 'NONE', ( #143 ) ) ;
#62 = PERSON_AND_ORGANIZATION_ROLE ( 'design_supplier' ) ;
#63 = ORGANIZATION ( 'UNSPECIFIED', 'UNSPECIFIED', '' ) ;
#64 = CIRCLE ( 'NONE', #137, 0.8000000000000009326 ) ;
#65 = DIRECTION ( 'NONE',  ( -3.491481338843133355E-15, 1.224646799147353207E-16, -1.000000000000000000 ) ) ;
#66 = COORDINATED_UNIVERSAL_TIME_OFFSET ( 1, 0, .AHEAD. ) ;
#67 = EDGE_CURVE ( 'NONE', #91, #91, #64, .T. ) ;
#68 = CONICAL_SURFACE ( 'NONE', #70, 0.8749999999999985567, 1.047197551196592746 ) ;
#69 = FACE_OUTER_BOUND ( 'NONE', #209, .T. ) ;
#70 = AXIS2_PLACEMENT_3D ( 'NONE', #94, #96, #120 ) ;
#71 = CARTESIAN_POINT ( 'NONE',  ( 1.319779946082704535E-13, 0.9999999999999963363, 37.79999999999999716 ) ) ;
#72 = ADVANCED_BREP_SHAPE_REPRESENTATION ( '55791', ( #42, #111, #116 ), #154 ) ;
#73 = DIRECTION ( 'NONE',  ( 0.0000000000000000000, 1.000000000000000000, 0.0000000000000000000 ) ) ;
#74 = AXIS2_PLACEMENT_3D ( 'NONE', #182, #132, #169 ) ;
#75 = CARTESIAN_POINT ( 'NONE',  ( 1.326762908760390423E-13, 0.7999999999999962697, 38.00000000000000000 ) ) ;
#76 = DATE_TIME_ROLE ( 'creation_date' ) ;
#77 = CIRCLE ( 'NONE', #207, 1.000000000000000888 ) ;
#78 = FACE_OUTER_BOUND ( 'NONE', #53, .T. ) ;
#79 = PERSON_AND_ORGANIZATION_ROLE ( 'creator' ) ;
#80 = CC_DESIGN_PERSON_AND_ORGANIZATION_ASSIGNMENT ( #213, #62, ( #217 ) ) ;
#81 = SHAPE_DEFINITION_REPRESENTATION ( #192, #72 ) ;
#82 = PRODUCT_RELATED_PRODUCT_CATEGORY ( 'detail', '', ( #135 ) ) ;
#83 = CARTESIAN_POINT ( 'NONE',  ( 4.189777606611760026E-14, 0.8749999999999973355, 12.00000000000000000 ) ) ;
#84 = CARTESIAN_POINT ( 'NONE',  ( 4.189777606611760026E-14, 6.561449049145595560E-33, 12.00000000000000000 ) ) ;
#85 = APPROVAL ( #145, 'UNSPECIFIED' ) ;
#86 = DIRECTION ( 'NONE',  ( -3.491481338843133355E-15, 1.224646799147353207E-16, -1.000000000000000000 ) ) ;
#87 = CARTESIAN_POINT ( 'NONE',  ( 0.0000000000000000000, 0.0000000000000000000, 0.0000000000000000000 ) ) ;
#88 = PERSON_AND_ORGANIZATION ( #159, #63 ) ;
#89 = DATE_AND_TIME ( #9, #11 ) ;
#90 = PERSON_AND_ORGANIZATION ( #159, #63 ) ;
#91 = VERTEX_POINT ( 'NONE', #75 ) ;
#92 = APPROVAL_ROLE ( '' ) ;
#93 = EDGE_LOOP ( 'NONE', ( #21 ) ) ;
#94 = CARTESIAN_POINT ( 'NONE',  ( 1.763831729495200602E-15, -6.186688892562017195E-17, 0.5051814855409274552 ) ) ;
#95 = ADVANCED_FACE ( 'NONE', ( #15 ), #108, .F. ) ;
#96 = DIRECTION ( 'NONE',  ( 3.491481338843133355E-15, -1.224646799147353207E-16, 1.000000000000000000 ) ) ;
#97 = FACE_OUTER_BOUND ( 'NONE', #61, .T. ) ;
#98 =( LENGTH_UNIT ( ) NAMED_UNIT ( * ) SI_UNIT ( .MILLI., .METRE. ) );
#99 = ADVANCED_FACE ( 'NONE', ( #206 ), #185, .T. ) ;
#100 =( NAMED_UNIT ( * ) PLANE_ANGLE_UNIT ( ) SI_UNIT ( $, .RADIAN. ) );
#101 = SECURITY_CLASSIFICATION ( '', '', #164 ) ;
#102 = AXIS2_PLACEMENT_3D ( 'NONE', #60, #124, #73 ) ;
#103 = VERTEX_POINT ( 'NONE', #83 ) ;
#104 = FACE_BOUND ( 'NONE', #26, .T. ) ;
#105 = ORIENTED_EDGE ( 'NONE', *, *, #170, .T. ) ;
#106 = CARTESIAN_POINT ( 'NONE',  ( 1.326762908760390423E-13, -4.653657836759941941E-15, 38.00000000000000000 ) ) ;
#107 = CC_DESIGN_APPROVAL ( #85, ( #217 ) ) ;
#108 = PLANE ( 'NONE',  #118 ) ;
#109 = CARTESIAN_POINT ( 'NONE',  ( 4.189777606611760026E-14, 6.561449049145595560E-33, 12.00000000000000000 ) ) ;
#110 = APPROVAL_STATUS ( 'not_yet_approved' ) ;
#111 = MANIFOLD_SOLID_BREP ( 'Corps-Déplacer/Copier1[2]', #223 ) ;
#112 = DIRECTION ( 'NONE',  ( -3.491481338843133355E-15, 1.224646799147353207E-16, -1.000000000000000000 ) ) ;
#113 = CALENDAR_DATE ( 2021, 8, 10 ) ;
#114 = CARTESIAN_POINT ( 'NONE',  ( 4.265370395018695741E-14, 0.9999999999999954481, 12.21650635094610671 ) ) ;
#115 = PERSON_AND_ORGANIZATION ( #159, #63 ) ;
#116 = AXIS2_PLACEMENT_3D ( 'NONE', #121, #186, #174 ) ;
#117 = ORIENTED_EDGE ( 'NONE', *, *, #157, .F. ) ;
#118 = AXIS2_PLACEMENT_3D ( 'NONE', #109, #59, #41 ) ;
#119 = APPLICATION_PROTOCOL_DEFINITION ( 'international standard', 'config_control_design', 1994, #203 ) ;
#120 = DIRECTION ( 'NONE',  ( -4.402125587170831939E-31, -1.000000000000000000, -1.239088197126292789E-16 ) ) ;
#121 = CARTESIAN_POINT ( 'NONE',  ( 0.0000000000000000000, 0.0000000000000000000, 0.0000000000000000000 ) ) ;
#122 =( NAMED_UNIT ( * ) SI_UNIT ( $, .STERADIAN. ) SOLID_ANGLE_UNIT ( ) );
#123 = ADVANCED_FACE ( 'NONE', ( #19, #104 ), #14, .T. ) ;
#124 = DIRECTION ( 'NONE',  ( -3.491481338843133355E-15, 1.224646799147353207E-16, -1.000000000000000000 ) ) ;
#125 = CARTESIAN_POINT ( 'NONE',  ( 0.0000000000000000000, 0.0000000000000000000, 0.0000000000000000000 ) ) ;
#126 = EDGE_CURVE ( 'NONE', #141, #141, #2, .T. ) ;
#127 = PERSON_AND_ORGANIZATION ( #159, #63 ) ;
#128 = EDGE_LOOP ( 'NONE', ( #10 ) ) ;
#129 = APPROVAL_DATE_TIME ( #193, #85 ) ;
#130 = CC_DESIGN_DATE_AND_TIME_ASSIGNMENT ( #177, #76, ( #31 ) ) ;
#131 = APPROVAL_STATUS ( 'not_yet_approved' ) ;
#132 = DIRECTION ( 'NONE',  ( -3.491481338843133355E-15, 1.224646799147353207E-16, -1.000000000000000000 ) ) ;
#133 = LOCAL_TIME ( 10, 11, 59.00000000000000000, #144 ) ;
#134 = CIRCLE ( 'NONE', #160, 0.9999999999999970024 ) ;
#135 = PRODUCT ( '55791', '55791', '', ( #39 ) ) ;
#136 = DIRECTION ( 'NONE',  ( 3.491481338843133355E-15, -1.224646799147353207E-16, 1.000000000000000000 ) ) ;
#137 = AXIS2_PLACEMENT_3D ( 'NONE', #106, #43, #17 ) ;
#138 = EDGE_LOOP ( 'NONE', ( #34 ) ) ;
#139 = CARTESIAN_POINT ( 'NONE',  ( 1.763831729495200602E-15, -6.186688892562017195E-17, 0.5051814855409274552 ) ) ;
#140 = AXIS2_PLACEMENT_3D ( 'NONE', #139, #156, #187 ) ;
#141 = VERTEX_POINT ( 'NONE', #29 ) ;
#142 = ORIENTED_EDGE ( 'NONE', *, *, #126, .T. ) ;
#143 = ORIENTED_EDGE ( 'NONE', *, *, #126, .F. ) ;
#144 = COORDINATED_UNIVERSAL_TIME_OFFSET ( 1, 0, .AHEAD. ) ;
#145 = APPROVAL_STATUS ( 'not_yet_approved' ) ;
#146 = ORIENTED_EDGE ( 'NONE', *, *, #152, .T. ) ;
#147 = DIRECTION ( 'NONE',  ( 4.275831445896958607E-31, 1.000000000000000000, 1.224646799147353454E-16 ) ) ;
#148 = CYLINDRICAL_SURFACE ( 'NONE', #180, 0.9999999999999988898 ) ;
#149 = PERSON_AND_ORGANIZATION_ROLE ( 'classification_officer' ) ;
#150 = PERSON_AND_ORGANIZATION_ROLE ( 'creator' ) ;
#151 = LOCAL_TIME ( 10, 11, 59.00000000000000000, #66 ) ;
#152 = EDGE_CURVE ( 'NONE', #51, #51, #134, .T. ) ;
#153 = CC_DESIGN_DATE_AND_TIME_ASSIGNMENT ( #176, #27, ( #101 ) ) ;
#154 =( GEOMETRIC_REPRESENTATION_CONTEXT ( 3 ) GLOBAL_UNCERTAINTY_ASSIGNED_CONTEXT ( ( #13 ) ) GLOBAL_UNIT_ASSIGNED_CONTEXT ( ( #98, #100, #122 ) ) REPRESENTATION_CONTEXT ( 'NONE', 'WORKASPACE' ) );
#155 = APPROVAL_DATE_TIME ( #173, #44 ) ;
#156 = DIRECTION ( 'NONE',  ( -3.491481338843133355E-15, 1.224646799147353207E-16, -1.000000000000000000 ) ) ;
#157 = EDGE_CURVE ( 'NONE', #37, #37, #54, .T. ) ;
#158 = DIRECTION ( 'NONE',  ( 0.0000000000000000000, 1.000000000000000000, 0.0000000000000000000 ) ) ;
#159 = PERSON ( 'UNSPECIFIED', 'UNSPECIFIED', 'UNSPECIFIED', ('UNSPECIFIED'), ('UNSPECIFIED'), ('UNSPECIFIED') ) ;
#160 = AXIS2_PLACEMENT_3D ( 'NONE', #20, #86, #158 ) ;
#161 = APPROVAL_DATE_TIME ( #89, #58 ) ;
#162 = EDGE_LOOP ( 'NONE', ( #105 ) ) ;
#163 = ADVANCED_FACE ( 'NONE', ( #30, #69 ), #57, .T. ) ;
#164 = SECURITY_CLASSIFICATION_LEVEL ( 'unclassified' ) ;
#165 = CALENDAR_DATE ( 2021, 8, 10 ) ;
#166 = CIRCLE ( 'NONE', #74, 0.8749999999999987788 ) ;
#167 = PLANE ( 'NONE',  #214 ) ;
#168 = ADVANCED_FACE ( 'NONE', ( #201 ), #68, .T. ) ;
#169 = DIRECTION ( 'NONE',  ( 0.0000000000000000000, 1.000000000000000000, 0.0000000000000000000 ) ) ;
#170 = EDGE_CURVE ( 'NONE', #103, #103, #166, .T. ) ;
#171 = ADVANCED_FACE ( 'NONE', ( #97, #196 ), #178, .T. ) ;
#172 = VERTEX_POINT ( 'NONE', #71 ) ;
#173 = DATE_AND_TIME ( #18, #184 ) ;
#174 = DIRECTION ( 'NONE',  ( 1.000000000000000000, 0.0000000000000000000, 0.0000000000000000000 ) ) ;
#175 = FACE_OUTER_BOUND ( 'NONE', #93, .T. ) ;
#176 = DATE_AND_TIME ( #23, #133 ) ;
#177 = DATE_AND_TIME ( #165, #22 ) ;
#178 = CYLINDRICAL_SURFACE ( 'NONE', #55, 0.8749999999999986677 ) ;
#179 = APPROVAL_PERSON_ORGANIZATION ( #88, #44, #92 ) ;
#180 = AXIS2_PLACEMENT_3D ( 'NONE', #125, #36, #181 ) ;
#181 = DIRECTION ( 'NONE',  ( 4.275831445896957731E-31, 1.000000000000000000, 1.224646799147353454E-16 ) ) ;
#182 = CARTESIAN_POINT ( 'NONE',  ( 4.189777606611760026E-14, -1.469576158976823947E-15, 12.00000000000000000 ) ) ;
#183 = CARTESIAN_POINT ( 'NONE',  ( 4.189777606611760026E-14, 0.8749999999999973355, 12.00000000000000000 ) ) ;
#184 = LOCAL_TIME ( 10, 11, 59.00000000000000000, #35 ) ;
#185 = PLANE ( 'NONE',  #199 ) ;
#186 = DIRECTION ( 'NONE',  ( 0.0000000000000000000, 0.0000000000000000000, 1.000000000000000000 ) ) ;
#187 = DIRECTION ( 'NONE',  ( 4.402125587170831939E-31, 1.000000000000000000, 1.239088197126292789E-16 ) ) ;
#188 = AXIS2_PLACEMENT_3D ( 'NONE', #56, #136, #215 ) ;
#189 = EDGE_LOOP ( 'NONE', ( #142 ) ) ;
#190 = ORIENTED_EDGE ( 'NONE', *, *, #67, .T. ) ;
#191 = DIRECTION ( 'NONE',  ( 0.0000000000000000000, 1.000000000000000000, 0.0000000000000000000 ) ) ;
#192 = PRODUCT_DEFINITION_SHAPE ( 'NONE', 'NONE',  #31 ) ;
#193 = DATE_AND_TIME ( #113, #151 ) ;
#194 = CC_DESIGN_PERSON_AND_ORGANIZATION_ASSIGNMENT ( #127, #79, ( #217 ) ) ;
#195 = DIRECTION ( 'NONE',  ( -3.491481338843133355E-15, 1.224646799147353207E-16, -1.000000000000000000 ) ) ;
#196 = FACE_OUTER_BOUND ( 'NONE', #1, .T. ) ;
#197 = APPROVAL_PERSON_ORGANIZATION ( #48, #58, #5 ) ;
#198 = COORDINATED_UNIVERSAL_TIME_OFFSET ( 1, 0, .AHEAD. ) ;
#199 = AXIS2_PLACEMENT_3D ( 'NONE', #84, #40, #221 ) ;
#200 = CARTESIAN_POINT ( 'NONE',  ( 1.319779946082704535E-13, -4.629164900776995227E-15, 37.79999999999999716 ) ) ;
#201 = FACE_OUTER_BOUND ( 'NONE', #189, .T. ) ;
#202 = AXIS2_PLACEMENT_3D ( 'NONE', #212, #195, #8 ) ;
#203 = APPLICATION_CONTEXT ( 'configuration controlled 3d designs of mechanical parts and assemblies' ) ;
#204 = APPROVAL_PERSON_ORGANIZATION ( #6, #85, #49 ) ;
#205 = DESIGN_CONTEXT ( 'detailed design', #211, 'design' ) ;
#206 = FACE_OUTER_BOUND ( 'NONE', #216, .T. ) ;
#207 = AXIS2_PLACEMENT_3D ( 'NONE', #200, #112, #191 ) ;
#208 = ADVANCED_FACE ( 'NONE', ( #24 ), #167, .F. ) ;
#209 = EDGE_LOOP ( 'NONE', ( #146 ) ) ;
#210 = EDGE_LOOP ( 'NONE', ( #3 ) ) ;
#211 = APPLICATION_CONTEXT ( 'configuration controlled 3d designs of mechanical parts and assemblies' ) ;
#212 = CARTESIAN_POINT ( 'NONE',  ( 4.189777606611760026E-14, -1.469576158976823947E-15, 12.00000000000000000 ) ) ;
#213 = PERSON_AND_ORGANIZATION ( #159, #63 ) ;
#214 = AXIS2_PLACEMENT_3D ( 'NONE', #28, #65, #47 ) ;
#215 = DIRECTION ( 'NONE',  ( 0.0000000000000000000, -1.000000000000000000, 0.0000000000000000000 ) ) ;
#216 = EDGE_LOOP ( 'NONE', ( #117 ) ) ;
#217 = PRODUCT_DEFINITION_FORMATION_WITH_SPECIFIED_SOURCE ( 'ANY', '', #135, .NOT_KNOWN. ) ;
#218 = ORIENTED_EDGE ( 'NONE', *, *, #157, .T. ) ;
#219 = PERSON_AND_ORGANIZATION_ROLE ( 'design_owner' ) ;
#220 = EDGE_CURVE ( 'NONE', #172, #172, #77, .T. ) ;
#221 = DIRECTION ( 'NONE',  ( -4.275831445896958607E-31, -1.000000000000000000, -1.224646799147353207E-16 ) ) ;
#222 = DIRECTION ( 'NONE',  ( -3.491481338843133355E-15, 1.224646799147353207E-16, -1.000000000000000000 ) ) ;
#223 = CLOSED_SHELL ( 'NONE', ( #168, #171, #99 ) ) ;
ENDSEC;
END-ISO-10303-21;
