ISO-10303-21;
HEADER;
FILE_DESCRIPTION (( 'STEP AP203' ),
    '1' );
FILE_NAME ('55789.step',
    '2021-10-08T08:11:56',
    ( '' ),
    ( '' ),
    'SwSTEP 2.0',
    'SolidWorks 2019',
    '' );
FILE_SCHEMA (( 'CONFIG_CONTROL_DESIGN' ));
ENDSEC;

DATA;
#1 = PERSON_AND_ORGANIZATION_ROLE ( 'design_owner' ) ;
#2 = APPROVAL_ROLE ( '' ) ;
#3 = ADVANCED_FACE ( 'NONE', ( #91, #150 ), #141, .T. ) ;
#4 = AXIS2_PLACEMENT_3D ( 'NONE', #112, #178, #199 ) ;
#5 = CARTESIAN_POINT ( 'NONE',  ( 4.280488952700083263E-14, -1.501393416138570935E-15, 12.25980762113533018 ) ) ;
#6 = SECURITY_CLASSIFICATION_LEVEL ( 'unclassified' ) ;
#7 = EDGE_LOOP ( 'NONE', ( #131 ) ) ;
#8 = DIRECTION ( 'NONE',  ( -3.491481338843133355E-15, 1.224646799147353207E-16, -1.000000000000000000 ) ) ;
#9 = AXIS2_PLACEMENT_3D ( 'NONE', #27, #194, #48 ) ;
#10 = DIRECTION ( 'NONE',  ( 0.0000000000000000000, 0.0000000000000000000, 1.000000000000000000 ) ) ;
#11 = EDGE_LOOP ( 'NONE', ( #197 ) ) ;
#12 = ORIENTED_EDGE ( 'NONE', *, *, #223, .F. ) ;
#13 = DESIGN_CONTEXT ( 'detailed design', #116, 'design' ) ;
#14 = DIRECTION ( 'NONE',  ( 3.491481338843133355E-15, -1.224646799147353207E-16, 1.000000000000000000 ) ) ;
#15 = CC_DESIGN_APPROVAL ( #32, ( #157 ) ) ;
#16 = CALENDAR_DATE ( 2021, 8, 10 ) ;
#17 = EDGE_CURVE ( 'NONE', #103, #103, #21, .T. ) ;
#18 = DATE_AND_TIME ( #16, #87 ) ;
#19 = APPLICATION_PROTOCOL_DEFINITION ( 'international standard', 'config_control_design', 1994, #116 ) ;
#20 = COORDINATED_UNIVERSAL_TIME_OFFSET ( 1, 0, .AHEAD. ) ;
#21 = CIRCLE ( 'NONE', #4, 0.8000000000000009326 ) ;
#22 = EDGE_LOOP ( 'NONE', ( #45 ) ) ;
#23 = APPROVAL_DATE_TIME ( #189, #73 ) ;
#24 = AXIS2_PLACEMENT_3D ( 'NONE', #95, #10, #181 ) ;
#25 = MANIFOLD_SOLID_BREP ( 'Corps-Déplacer/Copier1[1]', #202 ) ;
#26 = CONICAL_SURFACE ( 'NONE', #75, 0.8000000000000009326, 0.7853981633974512766 ) ;
#27 = CARTESIAN_POINT ( 'NONE',  ( 1.713436537223909060E-15, -6.009926352774530778E-17, 0.4907477288111866676 ) ) ;
#28 = CARTESIAN_POINT ( 'NONE',  ( 1.326762908760390423E-13, -4.653657836759941941E-15, 38.00000000000000000 ) ) ;
#29 = APPLICATION_PROTOCOL_DEFINITION ( 'international standard', 'config_control_design', 1994, #107 ) ;
#30 = CYLINDRICAL_SURFACE ( 'NONE', #164, 0.8499999999999992006 ) ;
#31 = ORGANIZATION ( 'UNSPECIFIED', 'UNSPECIFIED', '' ) ;
#32 = APPROVAL ( #146, 'UNSPECIFIED' ) ;
#33 = PERSON_AND_ORGANIZATION ( #121, #31 ) ;
#34 = DIRECTION ( 'NONE',  ( -3.491481338843133355E-15, 1.224646799147353207E-16, -1.000000000000000000 ) ) ;
#35 = FACE_OUTER_BOUND ( 'NONE', #43, .T. ) ;
#36 = DATE_AND_TIME ( #60, #156 ) ;
#37 = CC_DESIGN_PERSON_AND_ORGANIZATION_ASSIGNMENT ( #137, #160, ( #157 ) ) ;
#38 = DIRECTION ( 'NONE',  ( 3.491481338843133355E-15, -1.224646799147353207E-16, 1.000000000000000000 ) ) ;
#39 = CC_DESIGN_APPROVAL ( #73, ( #42 ) ) ;
#40 = ADVANCED_FACE ( 'NONE', ( #138 ), #99, .F. ) ;
#41 = PERSON_AND_ORGANIZATION_ROLE ( 'creator' ) ;
#42 = PRODUCT_DEFINITION_FORMATION_WITH_SPECIFIED_SOURCE ( 'ANY', '', #176, .NOT_KNOWN. ) ;
#43 = EDGE_LOOP ( 'NONE', ( #12 ) ) ;
#44 = CALENDAR_DATE ( 2021, 8, 10 ) ;
#45 = ORIENTED_EDGE ( 'NONE', *, *, #153, .T. ) ;
#46 = APPROVAL_PERSON_ORGANIZATION ( #172, #88, #2 ) ;
#47 = AXIS2_PLACEMENT_3D ( 'NONE', #118, #214, #212 ) ;
#48 = DIRECTION ( 'NONE',  ( 4.531599869146445287E-31, 1.000000000000000000, 1.275531967630007464E-16 ) ) ;
#49 = VERTEX_POINT ( 'NONE', #89 ) ;
#50 = FACE_OUTER_BOUND ( 'NONE', #11, .T. ) ;
#51 = FACE_OUTER_BOUND ( 'NONE', #22, .T. ) ;
#52 = PERSON_AND_ORGANIZATION_ROLE ( 'design_supplier' ) ;
#53 = EDGE_LOOP ( 'NONE', ( #69 ) ) ;
#54 = DIRECTION ( 'NONE',  ( 0.0000000000000000000, 1.000000000000000000, 0.0000000000000000000 ) ) ;
#55 = CC_DESIGN_PERSON_AND_ORGANIZATION_ASSIGNMENT ( #215, #218, ( #42 ) ) ;
#56 = DIRECTION ( 'NONE',  ( -4.275831445896958607E-31, -1.000000000000000000, -1.224646799147353207E-16 ) ) ;
#57 = CIRCLE ( 'NONE', #206, 0.8499999999999998668 ) ;
#58 = CC_DESIGN_DATE_AND_TIME_ASSIGNMENT ( #145, #126, ( #108 ) ) ;
#59 = SHAPE_DEFINITION_REPRESENTATION ( #198, #177 ) ;
#60 = CALENDAR_DATE ( 2021, 8, 10 ) ;
#61 = LOCAL_TIME ( 10, 11, 56.00000000000000000, #20 ) ;
#62 = MECHANICAL_CONTEXT ( 'NONE', #107, 'mechanical' ) ;
#63 = VERTEX_POINT ( 'NONE', #128 ) ;
#64 = AXIS2_PLACEMENT_3D ( 'NONE', #5, #78, #77 ) ;
#65 = ORIENTED_EDGE ( 'NONE', *, *, #17, .T. ) ;
#66 = LOCAL_TIME ( 10, 11, 56.00000000000000000, #144 ) ;
#67 = CARTESIAN_POINT ( 'NONE',  ( 4.189777606611760026E-14, 0.8499999999999983125, 12.00000000000000000 ) ) ;
#68 = ORIENTED_EDGE ( 'NONE', *, *, #86, .T. ) ;
#69 = ORIENTED_EDGE ( 'NONE', *, *, #223, .T. ) ;
#70 = UNCERTAINTY_MEASURE_WITH_UNIT (LENGTH_MEASURE( 1.000000000000000082E-05 ), #185, 'distance_accuracy_value', 'NONE');
#71 = ORIENTED_EDGE ( 'NONE', *, *, #200, .T. ) ;
#72 = DIRECTION ( 'NONE',  ( 4.275831445896957731E-31, 1.000000000000000000, 1.224646799147353454E-16 ) ) ;
#73 = APPROVAL ( #90, 'UNSPECIFIED' ) ;
#74 = CIRCLE ( 'NONE', #195, 0.8499999999999998668 ) ;
#75 = AXIS2_PLACEMENT_3D ( 'NONE', #28, #129, #54 ) ;
#76 = APPROVAL_ROLE ( '' ) ;
#77 = DIRECTION ( 'NONE',  ( 0.0000000000000000000, -1.000000000000000000, 0.0000000000000000000 ) ) ;
#78 = DIRECTION ( 'NONE',  ( 3.491481338843133355E-15, -1.224646799147353207E-16, 1.000000000000000000 ) ) ;
#79 =( NAMED_UNIT ( * ) PLANE_ANGLE_UNIT ( ) SI_UNIT ( $, .RADIAN. ) );
#80 = DIRECTION ( 'NONE',  ( 0.0000000000000000000, 1.000000000000000000, 0.0000000000000000000 ) ) ;
#81 = EDGE_LOOP ( 'NONE', ( #71 ) ) ;
#82 = FACE_OUTER_BOUND ( 'NONE', #93, .T. ) ;
#83 = FACE_OUTER_BOUND ( 'NONE', #115, .T. ) ;
#84 = AXIS2_PLACEMENT_3D ( 'NONE', #168, #14, #163 ) ;
#85 = CARTESIAN_POINT ( 'NONE',  ( 1.326762908760390423E-13, 0.7999999999999962697, 38.00000000000000000 ) ) ;
#86 = EDGE_CURVE ( 'NONE', #220, #220, #159, .T. ) ;
#87 = LOCAL_TIME ( 10, 11, 56.00000000000000000, #149 ) ;
#88 = APPROVAL ( #207, 'UNSPECIFIED' ) ;
#89 = CARTESIAN_POINT ( 'NONE',  ( 4.189777606611760026E-14, 0.8499999999999983125, 12.00000000000000000 ) ) ;
#90 = APPROVAL_STATUS ( 'not_yet_approved' ) ;
#91 = FACE_BOUND ( 'NONE', #97, .T. ) ;
#92 = ADVANCED_FACE ( 'NONE', ( #50, #114 ), #30, .T. ) ;
#93 = EDGE_LOOP ( 'NONE', ( #68 ) ) ;
#94 = DIRECTION ( 'NONE',  ( -3.491481338843133355E-15, 1.224646799147353207E-16, -1.000000000000000000 ) ) ;
#95 = CARTESIAN_POINT ( 'NONE',  ( 0.0000000000000000000, 0.0000000000000000000, 0.0000000000000000000 ) ) ;
#96 = AXIS2_PLACEMENT_3D ( 'NONE', #219, #38, #56 ) ;
#97 = EDGE_LOOP ( 'NONE', ( #152 ) ) ;
#98 = DIRECTION ( 'NONE',  ( -3.491481338843133355E-15, 1.224646799147353207E-16, -1.000000000000000000 ) ) ;
#99 = PLANE ( 'NONE',  #47 ) ;
#100 = CARTESIAN_POINT ( 'NONE',  ( 0.0000000000000000000, 0.0000000000000000000, 0.0000000000000000000 ) ) ;
#101 = CARTESIAN_POINT ( 'NONE',  ( 4.189777606611760026E-14, -1.469576158976823947E-15, 12.00000000000000000 ) ) ;
#102 = LOCAL_TIME ( 10, 11, 56.00000000000000000, #140 ) ;
#103 = VERTEX_POINT ( 'NONE', #85 ) ;
#104 = AXIS2_PLACEMENT_3D ( 'NONE', #154, #216, #132 ) ;
#105 = COORDINATED_UNIVERSAL_TIME_OFFSET ( 1, 0, .AHEAD. ) ;
#106 = PERSON_AND_ORGANIZATION ( #121, #31 ) ;
#107 = APPLICATION_CONTEXT ( 'configuration controlled 3d designs of mechanical parts and assemblies' ) ;
#108 = PRODUCT_DEFINITION ( 'UNKNOWN', '', #42, #13 ) ;
#109 = CALENDAR_DATE ( 2021, 8, 10 ) ;
#110 = CC_DESIGN_APPROVAL ( #88, ( #108 ) ) ;
#111 = ADVANCED_FACE ( 'NONE', ( #167, #117 ), #26, .T. ) ;
#112 = CARTESIAN_POINT ( 'NONE',  ( 1.326762908760390423E-13, -4.653657836759941941E-15, 38.00000000000000000 ) ) ;
#113 = CLOSED_SHELL ( 'NONE', ( #221, #92, #182 ) ) ;
#114 = FACE_OUTER_BOUND ( 'NONE', #81, .T. ) ;
#115 = EDGE_LOOP ( 'NONE', ( #148 ) ) ;
#116 = APPLICATION_CONTEXT ( 'configuration controlled 3d designs of mechanical parts and assemblies' ) ;
#117 = FACE_BOUND ( 'NONE', #211, .T. ) ;
#118 = CARTESIAN_POINT ( 'NONE',  ( 1.326762908760390423E-13, 5.999039130647367482E-33, 38.00000000000000000 ) ) ;
#119 = DIRECTION ( 'NONE',  ( -3.491481338843133355E-15, 1.224646799147353207E-16, -1.000000000000000000 ) ) ;
#120 = DIRECTION ( 'NONE',  ( -3.491481338843133355E-15, 1.224646799147353207E-16, -1.000000000000000000 ) ) ;
#121 = PERSON ( 'UNSPECIFIED', 'UNSPECIFIED', 'UNSPECIFIED', ('UNSPECIFIED'), ('UNSPECIFIED'), ('UNSPECIFIED') ) ;
#122 = AXIS2_PLACEMENT_3D ( 'NONE', #180, #34, #161 ) ;
#123 = CARTESIAN_POINT ( 'NONE',  ( 1.319779946082704535E-13, 0.9999999999999963363, 37.79999999999999716 ) ) ;
#124 = DATE_AND_TIME ( #210, #66 ) ;
#125 = CC_DESIGN_PERSON_AND_ORGANIZATION_ASSIGNMENT ( #205, #1, ( #176 ) ) ;
#126 = DATE_TIME_ROLE ( 'creation_date' ) ;
#127 = ORIENTED_EDGE ( 'NONE', *, *, #153, .F. ) ;
#128 = CARTESIAN_POINT ( 'NONE',  ( 4.280488952700083263E-14, 0.9999999999999954481, 12.25980762113533018 ) ) ;
#129 = DIRECTION ( 'NONE',  ( -3.491481338843133355E-15, 1.224646799147353207E-16, -1.000000000000000000 ) ) ;
#130 = CIRCLE ( 'NONE', #122, 1.000000000000000888 ) ;
#131 = ORIENTED_EDGE ( 'NONE', *, *, #17, .F. ) ;
#132 = DIRECTION ( 'NONE',  ( -4.275831445896958607E-31, -1.000000000000000000, -1.224646799147353207E-16 ) ) ;
#133 = EDGE_CURVE ( 'NONE', #49, #49, #74, .T. ) ;
#134 =( NAMED_UNIT ( * ) SI_UNIT ( $, .STERADIAN. ) SOLID_ANGLE_UNIT ( ) );
#135 = DIRECTION ( 'NONE',  ( 4.275831445896958607E-31, 1.000000000000000000, 1.224646799147353207E-16 ) ) ;
#136 = DIRECTION ( 'NONE',  ( 0.0000000000000000000, 1.000000000000000000, 0.0000000000000000000 ) ) ;
#137 = PERSON_AND_ORGANIZATION ( #121, #31 ) ;
#138 = FACE_OUTER_BOUND ( 'NONE', #7, .T. ) ;
#139 = CYLINDRICAL_SURFACE ( 'NONE', #192, 0.9999999999999988898 ) ;
#140 = COORDINATED_UNIVERSAL_TIME_OFFSET ( 1, 0, .AHEAD. ) ;
#141 = CONICAL_SURFACE ( 'NONE', #64, 0.9999999999999970024, 0.5235987755982937086 ) ;
#142 = ADVANCED_FACE ( 'NONE', ( #201 ), #183, .F. ) ;
#143 = CONICAL_SURFACE ( 'NONE', #84, 0.8499999999999985345, 1.047197551196592746 ) ;
#144 = COORDINATED_UNIVERSAL_TIME_OFFSET ( 1, 0, .AHEAD. ) ;
#145 = DATE_AND_TIME ( #44, #102 ) ;
#146 = APPROVAL_STATUS ( 'not_yet_approved' ) ;
#147 = CIRCLE ( 'NONE', #169, 0.9999999999999970024 ) ;
#148 = ORIENTED_EDGE ( 'NONE', *, *, #200, .F. ) ;
#149 = COORDINATED_UNIVERSAL_TIME_OFFSET ( 1, 0, .AHEAD. ) ;
#150 = FACE_OUTER_BOUND ( 'NONE', #53, .T. ) ;
#151 = APPROVAL_PERSON_ORGANIZATION ( #209, #73, #173 ) ;
#152 = ORIENTED_EDGE ( 'NONE', *, *, #133, .F. ) ;
#153 = EDGE_CURVE ( 'NONE', #184, #184, #130, .T. ) ;
#154 = CARTESIAN_POINT ( 'NONE',  ( 4.189777606611760026E-14, 6.373979076312871570E-33, 12.00000000000000000 ) ) ;
#155 = PLANE ( 'NONE',  #96 ) ;
#156 = LOCAL_TIME ( 10, 11, 56.00000000000000000, #105 ) ;
#157 = SECURITY_CLASSIFICATION ( '', '', #6 ) ;
#158 = CC_DESIGN_PERSON_AND_ORGANIZATION_ASSIGNMENT ( #33, #52, ( #42 ) ) ;
#159 = CIRCLE ( 'NONE', #9, 0.8499999999999985345 ) ;
#160 = PERSON_AND_ORGANIZATION_ROLE ( 'classification_officer' ) ;
#161 = DIRECTION ( 'NONE',  ( 0.0000000000000000000, 1.000000000000000000, 0.0000000000000000000 ) ) ;
#162 = CARTESIAN_POINT ( 'NONE',  ( 4.189777606611760026E-14, -1.469576158976823947E-15, 12.00000000000000000 ) ) ;
#163 = DIRECTION ( 'NONE',  ( -4.531599869146445287E-31, -1.000000000000000000, -1.275531967630007464E-16 ) ) ;
#164 = AXIS2_PLACEMENT_3D ( 'NONE', #217, #94, #135 ) ;
#165 = EDGE_LOOP ( 'NONE', ( #190 ) ) ;
#166 = CC_DESIGN_PERSON_AND_ORGANIZATION_ASSIGNMENT ( #106, #41, ( #108 ) ) ;
#167 = FACE_OUTER_BOUND ( 'NONE', #175, .T. ) ;
#168 = CARTESIAN_POINT ( 'NONE',  ( 1.713436537223909060E-15, -6.009926352774530778E-17, 0.4907477288111866676 ) ) ;
#169 = AXIS2_PLACEMENT_3D ( 'NONE', #203, #120, #186 ) ;
#170 = MANIFOLD_SOLID_BREP ( 'Corps-Déplacer/Copier1[2]', #113 ) ;
#171 = CC_DESIGN_DATE_AND_TIME_ASSIGNMENT ( #124, #188, ( #157 ) ) ;
#172 = PERSON_AND_ORGANIZATION ( #121, #31 ) ;
#173 = APPROVAL_ROLE ( '' ) ;
#174 = PERSON_AND_ORGANIZATION ( #121, #31 ) ;
#175 = EDGE_LOOP ( 'NONE', ( #127 ) ) ;
#176 = PRODUCT ( '55789', '55789', '', ( #62 ) ) ;
#177 = ADVANCED_BREP_SHAPE_REPRESENTATION ( '55789', ( #25, #170, #24 ), #222 ) ;
#178 = DIRECTION ( 'NONE',  ( -3.491481338843133355E-15, 1.224646799147353207E-16, -1.000000000000000000 ) ) ;
#179 = APPROVAL_DATE_TIME ( #36, #88 ) ;
#180 = CARTESIAN_POINT ( 'NONE',  ( 1.319779946082704535E-13, -4.629164900776995227E-15, 37.79999999999999716 ) ) ;
#181 = DIRECTION ( 'NONE',  ( 1.000000000000000000, 0.0000000000000000000, 0.0000000000000000000 ) ) ;
#182 = ADVANCED_FACE ( 'NONE', ( #83 ), #155, .T. ) ;
#183 = PLANE ( 'NONE',  #104 ) ;
#184 = VERTEX_POINT ( 'NONE', #123 ) ;
#185 =( LENGTH_UNIT ( ) NAMED_UNIT ( * ) SI_UNIT ( .MILLI., .METRE. ) );
#186 = DIRECTION ( 'NONE',  ( 0.0000000000000000000, 1.000000000000000000, 0.0000000000000000000 ) ) ;
#187 = APPROVAL_PERSON_ORGANIZATION ( #174, #32, #76 ) ;
#188 = DATE_TIME_ROLE ( 'classification_date' ) ;
#189 = DATE_AND_TIME ( #109, #61 ) ;
#190 = ORIENTED_EDGE ( 'NONE', *, *, #133, .T. ) ;
#191 = VERTEX_POINT ( 'NONE', #67 ) ;
#192 = AXIS2_PLACEMENT_3D ( 'NONE', #100, #98, #72 ) ;
#193 = PRODUCT_RELATED_PRODUCT_CATEGORY ( 'detail', '', ( #176 ) ) ;
#194 = DIRECTION ( 'NONE',  ( -3.491481338843133355E-15, 1.224646799147353207E-16, -1.000000000000000000 ) ) ;
#195 = AXIS2_PLACEMENT_3D ( 'NONE', #162, #8, #80 ) ;
#196 = CARTESIAN_POINT ( 'NONE',  ( 1.713436537223909455E-15, 0.8499999999999984235, 0.4907477288111867786 ) ) ;
#197 = ORIENTED_EDGE ( 'NONE', *, *, #86, .F. ) ;
#198 = PRODUCT_DEFINITION_SHAPE ( 'NONE', 'NONE',  #108 ) ;
#199 = DIRECTION ( 'NONE',  ( 0.0000000000000000000, 1.000000000000000000, 0.0000000000000000000 ) ) ;
#200 = EDGE_CURVE ( 'NONE', #191, #191, #57, .T. ) ;
#201 = FACE_OUTER_BOUND ( 'NONE', #165, .T. ) ;
#202 = CLOSED_SHELL ( 'NONE', ( #142, #3, #208, #111, #40 ) ) ;
#203 = CARTESIAN_POINT ( 'NONE',  ( 4.280488952700083263E-14, -1.501393416138570935E-15, 12.25980762113533018 ) ) ;
#204 = APPROVAL_DATE_TIME ( #18, #32 ) ;
#205 = PERSON_AND_ORGANIZATION ( #121, #31 ) ;
#206 = AXIS2_PLACEMENT_3D ( 'NONE', #101, #119, #136 ) ;
#207 = APPROVAL_STATUS ( 'not_yet_approved' ) ;
#208 = ADVANCED_FACE ( 'NONE', ( #35, #51 ), #139, .T. ) ;
#209 = PERSON_AND_ORGANIZATION ( #121, #31 ) ;
#210 = CALENDAR_DATE ( 2021, 8, 10 ) ;
#211 = EDGE_LOOP ( 'NONE', ( #65 ) ) ;
#212 = DIRECTION ( 'NONE',  ( 4.275831445896958607E-31, 1.000000000000000000, 1.224646799147353207E-16 ) ) ;
#213 = CC_DESIGN_SECURITY_CLASSIFICATION ( #157, ( #42 ) ) ;
#214 = DIRECTION ( 'NONE',  ( -3.491481338843133355E-15, 1.224646799147353207E-16, -1.000000000000000000 ) ) ;
#215 = PERSON_AND_ORGANIZATION ( #121, #31 ) ;
#216 = DIRECTION ( 'NONE',  ( 3.491481338843133355E-15, -1.224646799147353207E-16, 1.000000000000000000 ) ) ;
#217 = CARTESIAN_POINT ( 'NONE',  ( 0.0000000000000000000, 0.0000000000000000000, 0.0000000000000000000 ) ) ;
#218 = PERSON_AND_ORGANIZATION_ROLE ( 'creator' ) ;
#219 = CARTESIAN_POINT ( 'NONE',  ( 4.189777606611760026E-14, 6.373979076312871570E-33, 12.00000000000000000 ) ) ;
#220 = VERTEX_POINT ( 'NONE', #196 ) ;
#221 = ADVANCED_FACE ( 'NONE', ( #82 ), #143, .T. ) ;
#222 =( GEOMETRIC_REPRESENTATION_CONTEXT ( 3 ) GLOBAL_UNCERTAINTY_ASSIGNED_CONTEXT ( ( #70 ) ) GLOBAL_UNIT_ASSIGNED_CONTEXT ( ( #185, #79, #134 ) ) REPRESENTATION_CONTEXT ( 'NONE', 'WORKASPACE' ) );
#223 = EDGE_CURVE ( 'NONE', #63, #63, #147, .T. ) ;
ENDSEC;
END-ISO-10303-21;
